Session Road - Cool Off Chords & Tabs

 

Cool Off Chords & Tabs

Session Road Chords & Tabs

Version: 4 Type: Tab

Cool Off Tab

   
A 15 year old girl here.. lol 
i finally tabbed the solo of this song!
Took me a while.. nah..  haha... enjoy ;)

email me ... kirt_neill3000@yahoo.com

~COOL OFF (SOLO)~

===========================
| b  bend
| /  slide up
| h  hammer-on
| p  pull-off
===========================

e|---------------------------------------|
B|---------------------------------------|
G|---------------------------------------|
D|---------------------------------------|
A|-----4----4-6-6/7-6---4---4------------|
E|--------4---------------4--------------|
[ Tab from: http://www.guitartabs.cc/tabs/s/session_road/cool_off_tab_ver_4.html ]
e|---------------------------------------|
B|---------------------------------------|
G|---------------------------------------|
D|---------------------------------------|
A|----4-6-7-7/9-7-6----------------------|
E|--4-------------7-9--------------------|

e|--------------------------------------------------|
B|--------------------------------------------------|
G|--------------------------------------------------|
D|----------6h7p6--*pause*--7-6-4-6-4---------------|
A|----7-9-----------------------------7-7/9-7-7/6---|
E|--9---------------------------------------------9-|

=======================
By ear lng yan.. 
pasensya kung di pareho.. pero alam ko parehong pareho yan. ehehe..