Session Road - Cool Off Chords & Tabs

 

Cool Off Chords & Tabs

Session Road Chords & Tabs

Version: 1 Type: Tab 0 ratings
1 star 2 stars 3 stars 4 stars 5 stars
comments

Cool Off Tab

   
sana magustohan nyo i2                                             |
add nyo muna ako sa friendster:rock-star@yahoo.com                 |
pakinggan nyo nalang yung song na ito para makasabay kayo          | 
at alam kong tama ito!!!! wag nyo tong ma2liitin ha....            |
para po ito kay camille he he he!!! mahal ko yan...                |
hello po kay []redentor luces[] 1st tab ko2ng intro astig dba...   |
ako nga po pla si -=[]Bryan Salazar[]=- ng Tayabas Quezon...       |
hello nga po pala sa lahat ng ka friendster ko...                  |
Bryan Salazar: guitarist ng 4-EA sa LPNHS 08/09/05                 |         
___________________________________________________________________|
SessiOnroad - Cool off

Intro:B -- A#m - G#m - F#m -- E - F#m - G#m -- A#m - B or-||
E||--------------------------------------||               ||  
B||--------------------------------------||	    <-----||
G||--------------------------------------||	    <------    		
D||--------------------------------------||
A||---55--55--55-------------------------||
E||---------------99--77--77-------------||
[ Tab from: http://www.guitartabs.cc/tabs/s/session_road/cool_off_tab.html ]
E||--------------------------------------||	
B||--------------------------------------||
G||--------------------------------------||
D||--------------------------------------||
A||--------------------------------------||
E||--77--55--33--33----------------------||
                                             []ulit-ulit lng po yan[]         
E||--------------------------------------||
B||--------------------------------------||
G||--------------------------------------||
D||--------------------------------------||
A||--------------------------------------||
E||--33--55--77--77----------------------||

E||--------------------------------------||
B||--------------------------------------||
G||--------------------------------------||
D||--------------------------------------||
A||----------55--55----------------------||
E||--77--99------------------------------||

ayoko na munang makita ka
ayoko na munang makasama ka
gusto ko sanang mapag isa
`di  na yata tayo masya
`di na yata kakayanin pa
gusto ko munang mapag isa

[refrain]

C#m               D#m, E
siguro`y ito na nga
C#m
intindihin mo na
    C#m               B           A
kailangan lang natin ng pahinga

[chorus]
E         G#m         Dm
palayain ang isa`t isa
        B                 E
kung tayo, tayo talaga (2x)


ayoko na munag lapitan ka
ayoko na munang maka usap ka
gusto sanang mapag isa
`di na tayo mag kasundo
sumisikip na ang ating mundo
time out muna tayo

[Repeat Refreain]
[Repeat Chorus]

kung tayo tayo, talaga (4x)
_______________________________________
Tabbed by:Bryan Salazar |15 years old  |
________________________|______________|
__________________________________________________________________|
paki rate naman po plzzzzzzzzzzzzzzzzzz..................         |
hello sa mga classm8 ko sina camille,winters,jacob,lester,marlon, |
amata'z,ivy,rizalyn at especially kay -=[]joyce[]=-_              |
_-=[]Bryan[]=-_  _-=[]rock_on[]=-_  c",) hello []Karla[] dotcom   |
__________________________________________________________________|
Comments