Session Road - Cool Off Chords & Tabs

 

Cool Off Chords & Tabs

Session Road Chords & Tabs

Version: 1 Type: Bass Tab 0 ratings
1 star 2 stars 3 stars 4 stars 5 stars
comments

Cool Off Bass Tab

   
Cool Off Bass tab
by Session Road

pakinggan mo mna ung kanta!
(Continuous mula intro hanggang refrain)
Intro
G|------------------------------------------------------------------|
D|------------------------------------------------------------------|
A|------------------------------------------------------------------|
E|-88xxxxxx88xx887755xxxxxx55xx553311xxxxxx11xx113355xxxxxx55xx5577-|


Verse:
G|------------------------------------------------------------------|
D|------------------------------------------------------------------|
A|------------------------------------------------------------------|
E|-88xxxxxx88xx887755xxxxxx55xx553311xxxxxx11xx113355xxxxxx55xx5577-|

G|------------------------------------------------------------------|
D|------------------------------------------------------------------|
A|------------------------------------------------------------------|
E|-88xxxxxx88xx887755xxxxxx55xx553311xxxxxx11xx113355xxxxxx55xx5533-|

Refrain:

G|------------------------|--------------------|
D|------------------------|--------------------|
A|------------------------|--------------------|
E|-1-1-1-1---5-5-5-5-(3x)-|--3333333333333333--|

Chorus:
[ Tab from: http://www.guitartabs.cc/tabs/s/session_road/cool_off_btab.html ]
G|----------------------------------------------------------|
D|----------------------------------------------------------|
A|----------------------------------------------------------|
E|-/88888888-1212121212121212-5555555533333333-------------|

G|----------------------------------------------------------|
D|----------------------------------------------------------|
A|----------------------------------------------------------|
E|-/88888888-1212121212121212-5555555533pause--------------|
Adlib:

G|-------------------------------------------|
D|-------------------------------------------|
A|-/3---3--5-6-5---/3---3-5-6-8-6-5-6-5-3-/3-|
E|----3---------------3----------------------|

G|-----------------------------------------------------|
D|-----------------------------------------------------|
A|---6--810h11-10--11-11-10-8-10-8-6-8-6-5------------|
E|-3---------------------------------------------------|

G|-----------------------|
D|-----------------------|
A|--333333333333--11--00-| (4x)
E|-----------------------|
Verse 2:

G|------------------------------------------------------------------|
D|------------------------------------------------------------------|
A|------------------------------------------------------------------|
E|-88xxxxxx88xx887755xxxxxx55xx553311xxxxxx11xx113355xxxxxx55xx5577-|
 |
G|---------------------------------------------|
D|---------------------------------------------|
A|---------------------------------------------|
E|-88xxxxxx88xx887755xxxxxx55xx553311111pause--|

Repeat refrain
Repeat chorus(4x ung bass)

-d2 na papasok ung leaving you part-

+end+
Comments