Session Road - Cold Chords & Tabs

 

Cold Chords & Tabs

Session Road Chords & Tabs

Version: 1 Type: Tab 0 ratings
1 star 2 stars 3 stars 4 stars 5 stars
comments

Cold Tab

   
 
 Title: Cold
 Artist: SessiOn Road
 Album: Suntok sa Buwan
 Track no.: 4
 Elapsed Time: 3:42
 Transcribed by: Allan John G. Amisola
 E-mail add: kogure_18spider@yahoo.com 
 Date/Time: July 31, 2005  6:06 pm


           Promise, an'lupet po ni2...hehehe!!!


 Standard Tuning: EADGBe

 [Intro] Electric Guitar with Slide
    C-Am-F-E
	 C                 Am                  F                 E
e|------|-----------------|----7//8-----------|-----------4/5---|-\\4--------------||
B|------|------5----------|-----------5-------|---3///5---------|------------------||
G|------|-----------------|-------------------|-----------------|---------4///-----||
D|----3-|-//5-------------|-------------------|-----------------|------------------|| 
A|------|-----------------|-------------------|-----------------|------------------||
E|------|-----------------|-------------------|-----------------|------------------||


 [Verse 1]
  
  C                   Am
   As you turn away from me
                    F
  I'm secretly hoping
              E
  That you'd come around 
                            C
  And break the spell on me
                      Am
  It seems like its fading
                     F
  The fire between us
       E
  Has died down and now
                          C
  You left me questioning

 
 [Chorus]

  C     E                    F
  And I feel so lonely inside
        Fm                                 C
  With the pieces of the loving ways we cried
        E               F
  And I feel so empty now you've
                 Fm
  Gone and took away my pride

[ Tab from: http://www.guitartabs.cc/tabs/s/session_road/cold_tab.html ]
 [Verse 2] 
    C-Am-F-E

  Why can't you reach out for me?
  You're pulling me under
  As the darkness blinds the world
  Right out of me
  I feel like I'm trembling
  My knees are shaking
  'cause I know there's something
  You're not telling me.

 [Repeat Chorus]
 
 [Adlib/Solo]

  Am                        G                         Am                          
e|----3/5----3-------------|------------5---3---1----|---0---3/5---3-------------|
B|----3/5--------5\3-------|-------------------------|-------3/5-------5\3-------|
G|--------------------5----|-------4----4---4---2----|---2-------------------5---|
D|-------------------------|---5---------------------|---------------------------| 
A|-------------------------|-------------------------|---------------------------|
E|-------------------------|-------------------------|---------------------------|

  G                            F                         E
e|---7---7---5---5---3---1----|------------5------------|----------------5-----7----|
B|---8---8---7---7---5---3----|-------------------------|------------5---5-----7----|
G|----------------------------|--------5-------5--------|--------4------------------|
D|----------------------------|----3---------------3----|----2----------------------| 
A|----------------------------|-------------------------|---------------------------|
E|----------------------------|-------------------------|---------------------------|

 [Repeat Chorus]

 [Coda]

  C             E      F-Fm
   I feel so lonely oohhh...
  C             E      F-Fm
   I feel so empty oohhh...
  C             E      F-Fm
   You're gone and I cried.
Comments