Ses - Faceless Chords & Tabs

 

Faceless Chords & Tabs

Ses Chords & Tabs

Version: 1 Type: Tab 0 ratings
1 star 2 stars 3 stars 4 stars 5 stars
comments

Faceless Tab

--------------------------------------
--------------------------------------
--------------------------------------
--------------------------------------4x
-------------------3------------------
-2-2-0-2-3-3-2-0-2--------------------

[ Tab from: http://www.guitartabs.cc/tabs/s/ses/faceless_tab.html ]
-----------------------------------------------------------------
-----------------------------------------------------------------
-----------------------------------------------------------------
-7-7-7-7-7-7-7-7--5-5-5-5--8-8-8-8--9-9-9-9-9-9-9-9-9-9-9-9-9-9-9
-7-7-7-7-7-7-7-7--5-5-5-5--8-8-8-8--9-9-9-9-9-9-9-9-9-9-9-9-9-9-9  I think
-7-7-7-7-7-7-7-7--5-5-5-5--8-8-8-8--9-9-9-9-9-9-9-9-9-9-9-9-9-9-9

------------
------------
------------
-12-8-5-----
-12-8-5-----
-12-8-5-----
Comments