Servotron - Servotron Robot Allegiance Chords & Tabs

 

Servotron Robot Allegiance Chords & Tabs

Servotron Chords & Tabs

Version: 1 Type: Tab 1 rating
1 star 2 stars 3 stars 4 stars 5 stars
comments

Servotron Robot Allegiance Tab

   
S.R.A (Servotron Robot Allegiance) - Servotron
Tabbed by springwaffle

e|--------------------------------------------|
b|*------------------------------------------*|
g|--------------------------------------------|
d|--4-4---4----4-4---4----4-4---4----4-4---4--|
a|*-4-4---4----4-4---4----4-4---4----4-4---4-*|
e|--2-2-0-2----2-2-0-2----2-2-0-2----2-2-0-2--|

e|-----------------------------------|
b|*---------------------------------*|
g|-----------------------------------|
d|--4-4-7-7-6-6-9-9-4-4-5-5-6-6-7-7--|
a|*-4-4-7-7-6-6-9-9-4-4-5-5-6-6-7-7-*|
e|--2-2-5-5-4-4-7-7-6-6-3-3-4-4-5-5--|
[ Tab from: http://www.guitartabs.cc/tabs/s/servotron/servotron_robot_allegiance_tab.html ]
e|-----------------------------------|
b|*---------------------------------*|
g|--4-4-4-4-4-4-4-4-4-4-4-4-4-4-4-4--|
d|--4-4-4-4-4-4-4-4-4-4-4-4-4-4-4-4--|
a|*-2-2-2-2-2-2-2-2-2-2-2-2-2-2-2-2-*|
e|-----------------------------------|

e|-----------------------------------|
b|*---------------------------------*|
g|-----------------------------------|
d|--4-4-7-7-6-6-9-9-4-4-5-5-6-6-7-7--|
a|*-4-4-7-7-6-6-9-9-4-4-5-5-6-6-7-7-*|
e|--2-2-5-5-4-4-7-7-6-6-3-3-4-4-5-5--|

e------------------------------------------
b------------------------------------------
g------------4-4-4-4----2-2-2-2------------
d-4-4-4-4----4-4-4-4----2-2-2-2----4-4-4-4-
a-4-4-4-4----2-2-2-2----0-0-0-0----4-4-4-4-
e-2-2-2-2--------------------------2-2-2-2-

Corrections/comments/etc. can be sent to: springwaffle@comcast.net
Comments