Serial Joe - What I See Chords & Tabs

 

What I See Chords & Tabs

Serial Joe Chords & Tabs

Version: 1 Type: Tab 0 ratings
1 star 2 stars 3 stars 4 stars 5 stars
comments

What I See Tab

OK THIS IS MY FIRST TAB SO TELL ME HOW IT IS......
E------------------------------------------------------------
A------------------------------------------------------------
D------------------------------------------------------------
G-----2--2--2-----3---3---3----------------------------------
B----2----------3--------------------------------------------
E--2---2--2--2--3-----3---3---3------------------------------

Then I think it goes:
E------------------------------------------------------------
A -----------------------------------------------------------
D------------------------------------------------------------
G-5-5-5-5-5-5-5-7-7-7-7-7-7-7--------------------------------
B-5-5-5-5-5-5-5-7-7-7-7-7-7-7--------------------------------
E-5-5-5-5-5-5-5-7-7-7-7-7-7-7--------------------------------
[ Tab from: http://www.guitartabs.cc/tabs/s/serial_joe/what_i_see_tab.html ]
Comments