Serial Joe - Dragon On My Shoulder Chords & Tabs

 

Dragon On My Shoulder Chords & Tabs

Serial Joe Chords & Tabs

Version: 2 Type: Tab 0 ratings
1 star 2 stars 3 stars 4 stars 5 stars
comments

Dragon On My Shoulder Tab

T1: Jen Hennessy, tosh10@hotmail.com, Serial Joe, Dragon On My Shoulder,
   18/05/99 

   S1: This song isn't to hard to play !!!! (: The Serial Joe CD is awesome you
   should get it !!!! (:, Dragon On My Shoulder (Serial Joe) 
   Tabbed by : Jen Hennessy 
   DownTuning: Drop D 

   P(on top of string lines)- palm mute 
   ^- bend 
   h- hammer on 
   p- pull off 


   Riff#1 

   (P) (P) 
   e------------------------------------- 
   B------------------------------------- 
   G------------------------------------- 
   D------------------------------------- 
   A-0h1-0-0h1-0-1h2-2------------------- 
   D-0h1-0-0h1-0-1h2-2------------------- 


   Riff#2 
[ Tab from: http://www.guitartabs.cc/tabs/s/serial_joe/dragon_on_my_shoulder_tab_ver_2.html ]
   e-------------------------|------------------- 
   B---------------repeat x3-|------------------- 
   G------------------then->-|---------------3--- 
   D-------------------------|------------3-5---- 
   A---------3---------------|---------3-5------- 
   D-0-0-5h7---5-4^----------|-0-0-5h7----------- 


   Riff#3 

   e-----------------|------------------- 
   B-----------------|------------------- 
   G-----------------|------------------- 
   D-----------------|-----------3p0----- 
   A-----3h5-3h5-----|----3h5-3h5-------- 
   D-0-0---------0-3-|-0-0--------------- 


   Riff#4 

   e----------------------------------- 
   B----------------------------------- 
   G----------------------------------- 
   D-----------------3--------4------5- 
   A----3h5-7----3h5------3h5-----3h5-- 
   D-0-0------0-0------0-0-----0-0----- 

   And so on.... 

   Riff#1 x10 
   Riff#2 x4 
   Riff#3 x4 
   Riff#4 x2 
   Riff#2 x2 
   Riff#3 x4 
   Riff#4 x2 
   Guitar Solo(behind guitar solo is Riff#2 x2) 
   Riff#2 x2 
Comments