Serial Joe - Deep Chords & Tabs

 

Deep Chords & Tabs

Serial Joe Chords & Tabs

Version: 1 Type: Tab 0 ratings
1 star 2 stars 3 stars 4 stars 5 stars
comments

Deep Tab


Drop d tuning



|--------------------------------------------------------------------
|--------------------------------------------------------------------
|--------------------------------------------------------------------
|-----------0---4~-----------------0------4~-------------------------
|-------3---------------------3--------------------------------------
|--0--------------------0----------------------------2--1------------
[ Tab from: http://www.guitartabs.cc/tabs/s/serial_joe/deep_tab.html ]
                                                           4 times


|--------------------------------------------------------------------
|----------------------------------------------3---------------------
|----------------------------------------------4---------------------
|---------------4------------4-----------------4--5------------------
|----------5------------5-----------5----------2--5------------------
|------0------------0-----------0-----------------5------------------
                                                        repeat to end
Comments