Serial Joe - Deep Chords & Tabs

 

Deep Chords & Tabs

Serial Joe Chords & Tabs

Version: 2 Type: Bass Tab 0 ratings
1 star 2 stars 3 stars 4 stars 5 stars
comments

Deep Bass Tab

Artist: Serial Joe
Song: Deep
Tabber: Peter (Medic123@bolt.com)

Note that the 12's are not 1's or 2's

Intro/Verse

G|-------------|
D|-------------|
A|-------4-----|
E|-5-3-5---6-4-|

Chorus
[ Tab from: http://www.guitartabs.cc/tabs/s/serial_joe/deep_btab_ver_2.html ]
G|------------------------------------|
D|------------------------------------|
A|-3-3-3-3-3-3------------------------|
E|-------------12-12-12-12-12-5-5-5-5-|

Break 1

G|-----------------------------|
D|-----------------------------|
A|-3-3-3-3-3-3-7-7-7-7---------|
E|---------------------8-8-8-8-|

Break 2 (The "I don't know why" part)

G|---------------------------------|
D|---------------------------------|
A|-1-1-1-1-1-1-1-1-----------------|
E|-----------------7-7-7-7-8-8-8-8-|
Comments