Seraphs Coal - No Hero Chords & Tabs

 

No Hero Chords & Tabs

Seraphs Coal Chords & Tabs

Version: 1 Type: Tab 0 ratings
1 star 2 stars 3 stars 4 stars 5 stars
comments

No Hero Tab

   
Seraphs Coal - No Hero

Tabed by Aaron Haugh.

This song is off their first album - Dont mind if i dont. I think this tab is pretty correct. 
If you play along with the cd youll find it way easyer to understand. 
Mute notes with x next to them. 

Intro

E --------------------------------------------
a --------------------------------------------
d --------------------------------------------
g ---5-7-8---7-5--5-7-8-----------------------
b ---------4------------6-4-3-----------------
e --------------------------------------------

C G G# A# X4
G# A# D# C
G# A# Gx
G# A# D# D C
G# A#

E --------------------------------------------
a --------------------------------------------
d --------------------------------------------
g --5-7-8---7-5--5-7-8---7--------------------
b --------4------------4----------------------
e --------------------------------------------

E --------------------------------------------
a --------------------------------------------
d --------------------------------------------
g --5-7-8---7-5--5-7-8------------------------
b --------4------------6-4-3------------------
e --------------------------------------------

C G G# A# X4
G# A# D C
G# A# Gx
G# A# D# D C
G# A#

C G G# D# A# D# E#* 
[ Tab from: http://www.guitartabs.cc/tabs/s/seraphs_coal/no_hero_tab.html ]
E --------------------------------------------------
a --------------------------------------------------
d --------------------------------------------------
g -3-5-3-8---7-8-5--3-8-7-10-8-12-12-10-8-10-8-7-5--
b ---------6----------------------------------------
e --------------------------------------------------
C
Cx G#x A#x E#*x X2

C G# A# E#* 

E --------------------------------------------------
a --------------------------------------------------
d --------------------------------------------------
g --8-7--8-7-3-5--8-7--8-7-8-----10-12-8-7-4--------
b ---------------------------6-4--------------------
e --------------------------------------------------
  (C G# A# E#*)
E --------------------------------------------
a --------------------------------------------
d --------------------------------------------
g --5-7-8---7-5--5-7-8---7-------------------
b --------4------------4---------------------
e --------------------------------------------
  (C G G# A#)		
E --------------------------------------------
a --------------------------------------------
d --------------------------------------------
g --5-7-8---7-5--5-7-8-10-8-7-----------------
b --------4-----------------------------------
e --------------------------------------------

E --------------------------------------------
a --------------------------------------------
d --------------------------------------------
g -------------------------5------------------
b -8-6-4-6-4-3-8-6-4-6-4-3--------------------
e --------------------------------------------

Email your comments and questions to: generator_p@hotmail.com
Comments