Sepultura - We Who Are Not As Others Chords & Tabs

 

We Who Are Not As Others Chords & Tabs

Sepultura Chords & Tabs

Version: 2 Type: Tab

We Who Are Not As Others Tab

F#||------------------|------------------|------------------|------------------|
C#||------------------|------------------|------------------|------------------|
G#||------------------|------------------|------------------|------------------|
D#||------------------|------------------|------------------|------------------|


                                                                             
|-------------------------|------------------------|------------------------|
|*------------------------|------------------------|------------------------|
|*--4----4----------------|--4----4----------------|--4----4----------------|
|-------------------------|------------------------|------------------------|


                                                                               
-------------------------||------------------------||-------------------------|
------------------------*||------------------------||*------------------------|
--4----4----------------*||--4----4----------------||*--4----4----------------|
-------------------------||------------------------||-------------------------|


                                                                             
------------------------|------------------------|-------------------------||
------------------------|------------------------|------------------------*||
--4----4----------------|--4----4----------------|--4----4----------------*||
------------------------|------------------------|-------------------------||


                                                        
------------------------|------------------------------|
------------------------|------------------------------|
--4----4----------------|------------------------------|
------------------------|--4----4--4--4--4----4--4--4--|


                                                               
-------------------------------|------------------------------|
-------------------------------|------------------------------|
-------------------------------|------------------------------|
--4----4--4--4--4----4----4----|--5----5--5--5--5----5--5--5--|


                                                               
-------------------------------|------------------------------|
-------------------------------|------------------------------|
-------------------------------|------------------------------|
--5----5--5--5--5----5----5----|--4----4--4--4--4----4--4--4--|


                                                               
-------------------------------|------------------------------|
-------------------------------|------------------------------|
-------------------------------|------------------------------|
--4----4--4--4--4----4----4----|--5----5--5--5--5----5--5--5--|


                                                         
-------------------------------|------------------------|
-------------------------------|------------------------|
-------------------------------|--4----4----------------|
--5----5--5--5--5----5----5----|------------------------|


                                                                           
------------------------|------------------------|------------------------|
------------------------|------------------------|------------------------|
--4----4----------------|--4----4----------------|--4----4----------------|
------------------------|------------------------|------------------------|


                                                                           
------------------------|------------------------|------------------------|
------------------------|------------------------|------------------------|
--4----4----------------|--4----4----------------|--4----4----------------|
------------------------|------------------------|------------------------|


                                                                           
------------------------|------------------------|------------------------|
------------------------|------------------------|------------------------|
--4----4----------------|--4----4----------------|--4----4----------------|
------------------------|------------------------|------------------------|


                                                                           
------------------------|------------------------|------------------------|
------------------------|------------------------|------------------------|
--4----4----------------|--4----4----------------|--4----4----------------|
------------------------|------------------------|------------------------|


                                                                           
------------------------|------------------------|------------------------|
------------------------|------------------------|------------------------|
--4----4----------------|--4----4----------------|--4----4----------------|
------------------------|------------------------|------------------------|


                                         
|---------------------------------------|
|*--------------------------------------|
|*--------------------------------------|
|---0--0--0--0--0--0--4--4--4--4--4--4--|


                                       3x
---------------------------------------||
--------------------------------------*||
--------------------------------------*||
--0--0--0--0--0--0--3--3--3--3--3--3---||


                                        
---------------------------------------|
*--------------------------------------|
*--------------------------------------|
---0--0--0--0--0--0--4--4--4--4--4--4--|


                                         
---------------------------------------||
--------------------------------------*||
--------------------------------------*||
--0--0--0--0--0--0--3--3--3--3--3--3---||


                                        
---------------------------------------|
*--------------------------------------|
*--------------------------------------|
---0--0--0--0--0--0--4--4--4--4--4--4--|


                                                                                
---------------------------------------||--------------------------------------|
--------------------------------------*||--------------------------------------|
--------------------------------------*||--------------------------------------|
--0--0--0--0--0--0--3--3--3--3--3--3---||--0--0--0--0--0--0--3--3--3--3--3--3--|


                                                                            
------------------|------------------|------------------|------------------|
------------------|------------------|------------------|------------------|
------------------|------------------|------------------|------------------|
------------------|------------------|------------------|------------------|


                                                               
------------------------|------------------|------------------|
------------------------|------------------|------------------|
--4----4----------------|------------------|------------------|
------------------------|------------------|------------------|

[ Tab from: http://www.guitartabs.cc/tabs/s/sepultura/we_who_are_not_as_others_tab_ver_2.html ]
                                                                           
----------------------------||----------------------|---------------------|
----------------------------||*---------------------|---------------------|
--4--5----5----4--5----5----||*--4--------4----4----|--4--------4----4----|
----------------------------||----------------------|---------------------|


                                                                
---------------------|---------------------|-------------------|
---------------------|---------------------|-------------------|
--4--------4----4----|--4--------4----4----|--5----------------|
---------------------|---------------------|-------------------|


                                                                               
------------------|------------------|-------------------||-------------------|
------------------|------------------|------------------*||-------------------|
------------------|------------------|------------------*||--5----------------|
------------------|------------------|-------------------||-------------------|


                                                                              
------------------|------------------|------------------|--------------------|
------------------|------------------|------------------|--------------------|
------------------|------------------|------------------|--------------------|
------------------|------------------|------------------|--4------------4----|


                                                               
--------------------|--------------------|--------------------|
--------------------|--------------------|--------------------|
--------------------|--------------------|--------------------|
--2--------5--------|--4------------4----|--2--------5--------|


                                                               
--------------------|--------------------|--------------------|
--------------------|--------------------|--------------------|
--------------------|--------------------|--------------------|
--4------------4----|--2--------5--------|--4------------4----|


                                                               
--------------------|--------------------|--------------------|
--------------------|--------------------|--------------------|
--------------------|--------------------|--------------------|
--2--------5--------|--4------------4----|--2--------5--------|


                                                               
--------------------|--------------------|--------------------|
--------------------|--------------------|--------------------|
--------------------|--------------------|--------------------|
--4------------4----|--2--------5--------|--4------------4----|


                                                               
--------------------|--------------------|--------------------|
--------------------|--------------------|--------------------|
--------------------|--------------------|--------------------|
--2--------5--------|--4------------4----|--2--------5--------|


                                              3x
|----------------------|----------------------||
|*---------------------|---------------------*||
|*--4--------4----4----|--4--------4----4----*||
|----------------------|----------------------||


                                                                              
--------------------------------------|--------------------------------------|
--------------------------------------|--------------------------------------|
--------------------------------------|--------------------------------------|
--0--0--0--0--0--0--4--4--4--4--4--4--|--0--0--0--0--0--0--3--3--3--3--3--3--|


                                         
|---------------------------------------|
|*--------------------------------------|
|*--------------------------------------|
|---0--0--0--0--0--0--4--4--4--4--4--4--|


                                       2x                                    
---------------------------------------||-----------------------------------|
--------------------------------------*||-----------------------------------|
--------------------------------------*||-----------------------------------|
--0--0--0--0--0--0--3--3--3--3--3--3---||--0--0--0--0--0--0--4----4----4----|


                                                                        
-----------------------------------|-----------------------------------|
-----------------------------------|-----------------------------------|
-----------------------------------|-----------------------------------|
--0--0--0--0--0--0--3----3----3----|--0--0--0--0--0--0--4----4----4----|


                                                                        
-----------------------------------|-----------------------------------|
-----------------------------------|-----------------------------------|
-----------------------------------|-----------------------------------|
--0--0--0--0--0--0--3----3----3----|--0--0--0--0--0--0--4----4----4----|


                                                                        
-----------------------------------|-----------------------------------|
-----------------------------------|-----------------------------------|
-----------------------------------|-----------------------------------|
--0--0--0--0--0--0--3----3----3----|--0--0--0--0--0--0--4----4----4----|


                                                                           
-----------------------------------|--------------------------------------|
-----------------------------------|--------------------------------------|
-----------------------------------|--------------------------------------|
--0--0--0--0--0--0--3----3----3----|--0--0--0--0--0--0--4--4--4--4--4--4--|


                                                                              
--------------------------------------|--------------------------------------|
--------------------------------------|--------------------------------------|
--------------------------------------|--------------------------------------|
--0--0--0--0--0--0--3--3--3--3--3--3--|--0--0--0--0--0--0--4--4--4--4--4--4--|


                                                                              
--------------------------------------|--------------------------------------|
--------------------------------------|--------------------------------------|
--------------------------------------|--------------------------------------|
--0--0--0--0--0--0--3--3--3--3--3--3--|--0--0--0--0--0--0--4--4--4--4--4--4--|


                                                                           
--------------------------------------|-----------------------------------|
--------------------------------------|-----------------------------------|
--------------------------------------|-----------------------------------|
--0--0--0--0--0--0--3--3--3--3--3--3--|--0--0--0--0--0--0--3----4----3----|


                         
-----------------------||
-----------------------||
-----------------------||
--0--------------------||