Sepultura - Troops Of Doom Chords & Tabs

 

Troops Of Doom Chords & Tabs

Sepultura Chords & Tabs

Version: 1 Type: Bass Tab 0 ratings
1 star 2 stars 3 stars 4 stars 5 stars
comments

Troops Of Doom Bass Tab

   
SEPULTURA "Troops of Doom" - SCHIZOPHRENIA

Tabbed by Adam


Intro:
G|---------------------------|
D|-9--10/11\8/9------5/6\3---|
A|-7--8-/9-\6/7---2--3/4\1/2-|
E|----------------0--------0-|

		  (Whole lot x2)
|-------------------------------|
|-----9-9----1010----8-8----9-9-|
|-----7-7----8-8-----6-6----7-7-|
|-0000---0000----0000---0000----|

Uno duos uno duos tres quatro

Verse:
G|----------------|
D|----------------|
A|----------------|
E|-000-000-000606-|
[ Tab from: http://www.guitartabs.cc/tabs/s/sepultura/troops_of_doom_btab.html ]
Chorus:			    (Very, very fast.)
G|------------------------------------------------------------------|
D|------------------------------------------------------------------|
A|-7777777777777777----------------6666666666666666-----------------|
E|-----------------7777777788888888----------------7777777788888888-|

Bridge:
G|----------------|
D|----------------|
A|--------------1-|
E|-0000-00000003--|

Interlude:guitar then bass comes in get the timing dont follow the tab
G|--------------------------|---------------------------|
D|--------------------------|---------------------------|
A|--------------------------|-7--7--8--6--7--7--8--10---|
E|-000000000000000000000000-|--00-00-00-00-00-00-00--00-|

Bridge then Outro:
G|--------------|
D|--------------|
A|-----------1--|
E|-00-00-00-3-0-|


Comments