Sepultura - Territory Chords & Tabs

 

Territory Chords & Tabs

Sepultura Chords & Tabs

Version: 7 Type: Tab 0 ratings
1 star 2 stars 3 stars 4 stars 5 stars
comments

Territory Tab

Territory
By: Sepultura
Transcribed By: Mike Bower
Tune all strings down 1 full step:
6 - D
5 - G
4 - C
3 - F
2 - A
1 - D
I hope this tab is correct. I haven't played this song in a while.

|---------------------|------------------|
|---------------------|------------------|
|---------------------|------------------|
|--9\8-8-8--9\8-8-8---|------------------|
|--7\6-6-6--7\6-6-6---|---2-----(2)------|
|---------------------|---0-----(0)------|

|--------------------------------------------------------------|
|--------------------------------------------------------------|
|--------------------------------------------------------------|
|--------------------------------------------------------------|
|----------------------------------------------------------2---|
|--0-0--0-0--0-0-0-0--0-0--0-0-0-0--0-0--0-0-0-0--0-0--0-0-0---|
   *-----------------------------------------------------------|

|-------------------------------------------------------------|
|----------------------------0--------------------------------|
|----------------------------0--------------------------------|
|-------------------------------------------------------------|
|--3---3/5---5\1---3--3--2-------3---3/5---5\---3--3/6~-------|
|--1---1/3---3\3---1--1--0-------1---1/3---3\---1--1/4~-------|
[ Tab from: http://www.guitartabs.cc/tabs/s/sepultura/territory_tab_ver_7.html ]
|---------------------------------|
|---------------------------------|
|---------------------------------|
|---------------------------------|
|---------------------------------|
|--4--1--0--0---4--1--0--0--------|
   *------------------------------|

|------------------------------------|
|------------------------------------|
|------------------------------------|
|--8--8------8--8--8-----------------|
|--6--6------6--6--6-----------------|
|--------0-0----------0-0-0-0--------|
         * *          * * * *

|------------------------|
|------------------------|
|------------------------|
|------------------------|
|--2-------3----5--------|
|--0-------1----3--------|

1st riff under solo:
|------------------------|
|------------------------|
|------------------------|
|--9\8-8-6---9\8-8-8-----|
|--7\6-6-6---7\6-6-6-----|
|------------------------|
2nd riff under solo:
|------------------------------------|
|------------------------------------|
|------------------------------------|
|------------------------------------|
|--3-3---3-3--3-3--3-3--3-3-3--------|
|--1-1---1-1--1-1--1-1--1-1-1--------|
   *---------------------------------|
Outro riff:
|------------------|
|------------------|
|------------------|
|------------------|
|--------3-----3---|
|--0-0-0-1-0-0-1---|
   * * *   * *
This is a really easy, but bitchen song. If i forgot anything,
or you would just like to tell me how cool i am, you can e-mail me at:
guitargod8852@hotmail.com. Later!
Comments