Sepultura - Territory Chords & Tabs

 

Territory Chords & Tabs

Sepultura Chords & Tabs

Version: 6 Type: Tab 0 ratings
1 star 2 stars 3 stars 4 stars 5 stars
comments

Territory Tab

   
   Song: Territory
   Artist: Sepultura
   Album: Chaos A.D
   Tabbed by: Rituraj Golawar (rituraj_rockdemon@yahoo.com)

   Hey headbangers, territory is one of the best songs known by sepultura,
   I found many tabs of this song, all sounding different!!
   I hope my one sounds the same as the Sepultura's!!
   Enjoy!


    Key:
    p.m.- Palm Mute
    p- Pull Off
    h- Hammer On
    /- Slide Up
    \- Slide down

    Tuning: Drop D

     Drum intro.....then...
   1)        0.07 - 0.14
   e------------------------------------------------------------------|
   B------------------------------------------------------------------|
   G------------------------------------------------------------------|
   D---1p0--1p0--1p0--------------------------------------------------|
   A---1p0--1p0--1p0--------------------------------------------------|
   E------------------------------------------------------------------|


   2)       0.15 - 0.20
   e---------------------------------------------------------------------|
   B---------------------------------------------------------------------|
   G---2---2---2---------------------------------------------------------|
   D---0---0---0---------------------------------------------------------|
   A---0---0---0---------------------------------------------------------|
   E---0---0---0---------------------------------------------------------|

   3)     0.21 - 0.27
   e------------------------------------------------------------------|
   B------------------------------------------------------------------|
   G----2-2--2-2--2-2-------------------------------------------------|
   D----0-0--0-0--0-0-------------------------------------------------|
   A----0-0--0-0--0-0-------------------------------------------------|
   E----0-0--0-0--0-0-------------------------------------------------|
   P.M. . .  . .  . .  . .  . . (listen carefully for the timing)

   4)      0.28 - 0.37
   e------------------------------------------------------------------|
   B------------------------------------------------------------------|
   G----2-------------------------------------------------------------|
   D----0-------------------------------------------------------------|
   A----0-------------------------------------------------------------|
   E----0-------------------------------------------------------------|

   5) 	  0.38 - 0.51
   e------------------------------------------------------------------|
   B------------------------------------------------------------------|
   G-----3----2----3///////7------------------------------------------|  X 2
   D-----1----0----1///////5------------------------------------------|
   A-----1----0----1///////5------------------------------------------|
   E-----1----0----1///////5------------------------------------------|

   6)     0.52 - 1.03
   e------------------------------------------------------------------|
   B------------------------------------------------------------------|
   G------------------------------------------------------------------|  X 16
   D----5--4--3--0--5--4--3--0----------------------------------------|
   A----5--4--3--0--5--4--3--0----------------------------------------|
   E----5--4--3--0--5--4--3--0----------------------------------------|
    P.M..  .  .  .     .  .  .  .


   7) Chorus...."War for territory"  1.04 - 1.16

   e------------------------------------------------------------------|
   B------------------------------------------------------------------|
   G-----3----2----3///////7------------------------------------------|  X 2
   D-----1----0----1///////5------------------------------------------|
   A-----1----0----1///////5------------------------------------------|
   E-----1----0----1///////5------------------------------------------|

[ Tab from: http://www.guitartabs.cc/tabs/s/sepultura/territory_tab_ver_6.html ]
   8)  1.17 - 1.23
   e------------------------------------------------------------------|
   B------------------------------------------------------------------|
   G----2-2--2-2--2-2--2-2--------------------------------------------|
   D----0-0--0-0--0-0--0-0--------------------------------------------|
   A----0-0--0-0--0-0--0-0--------------------------------------------|
   E----0-0--0-0--0-0--0-0--------------------------------------------|
    P.M ...........................(listen to CD again for timing!)


   9) Repeat rythm fig. 6)  1.24 - 1.35

   10) Repeat chorus rythm 7)  1.36 - 1.48


   11)   1.55 - 2.07
   e------------------------------------------------------------------|
   B------------------------------------------------------------------|
   G------------------------------------------------------------------| X 4
   D-----6--6-x-x--6--6--6--x-x-x-x-----------------------------------|
   A-----4--4-x-x--4--4--4--x-x-x-x-----------------------------------|
   E------------------------------------------------------------------|

   12)  2.08 - 2.19
   e------------------------------------------------------------------|
   B------------------------------------------------------------------|
   G------------------------------------------------------------------|
   D-----2~~~~~------3----6-------------------------------------------|
   A-----2~~~~~------3----6-------------------------------------------|
   E-----2~~~~~------3----6-------------------------------------------|


   13) Repeat rythm fig. 11) 2.20 - 2.32


   14) 2.33 - 2.45
   e------------------------------------------------------------------       |----------------|}
   B------------------------------------------------------------------       |----------------|}
   G------------------------------------------------------------------  X 8  |----------------|} X 2
   D-----7-7-7-7-7-7-7-7-7-7-7-7-7-7-7-7-7-7-7-7-7-7-7----------------       |--6----7----8---|}
   A-----7-7-7-7-7-7-7-7-7-7-7-7-7-7-7-7-7-7-7-7-7-7-7----------------       |--4----5----6---|}
   E-----7-7-7-7-7-7-7-7-7-7-7 7-7-7-7-7-7-7-7-7-7-7-7----------------       |----------------|}
     P.M.. . .   . . .   . . .   . . .   . . .   . . .


   15) 2.45 - 2.51
   e------------------------------------------------------------------|
   B------------------------------------------------------------------|
   G------------------------------------------------------------------|
   D-----x-4-x-5-x-4-x-0----------------------------------------------|
   A-----x-2-x-3-x-2-x-0----------------------------------------------|
   E-------------------0----------------------------------------------|


   16) Repeat rythm fig. 14) once to proceed into solo..... 2.51 - 2.57

   17) w/ solo 2.57 - 3.22
   e------------------------------------------------------------------|
   B------------------------------------------------------------------|
   G------------------------------------------------------------------|
   D-----6-(repeat)---------------------------------------------------|
   A-----4------------------------------------------------------------|
   E------------------------------------------------------------------|


   18) Repeat rythm fig. 6) 3.25 - 3.49

   19) Repeat chorus rythm fig. 7) 3.49 - 4.02


   20) 4. 14 - 4.20
   e------------------------------------------------------------------|
   B------------------------------------------------------------------|
   G-----3-3-3-3-3-3-3-3----------------------------------------------| X 8
   D-----1-1-1-1-1-1-1-1----------------------------------------------|
   A-----1-1-1-1-1-1-1-1----------------------------------------------|
   E-----1-1-1-1-1-1-1-1----------------------------------------------|
    P.M. . . .    . . .


   21)4.20 - 4.46
   e------------------------------------------------------------------|
   B------------------------------------------------------------------|
   G-----2-2-2-2-2-2-2-2----------------------------------------------| X 16
   D-----0-0-0-0-0-0-0-0----------------------------------------------|
   A-----0-0-0-0-0-0-0-0----------------------------------------------|
   E-----0-0-0-0-0-0-0-0----------------------------------------------|
    P.M. . . .   . . .


   Any questions, details, corrections, comments, etc., feel free to e-mail me.
Comments