Sepultura - Roots Bloody Roots Chords & Tabs

 

Roots Bloody Roots Chords & Tabs

Sepultura Chords & Tabs

Version: 2 Type: Tab 0 ratings
1 star 2 stars 3 stars 4 stars 5 stars
comments

Roots Bloody Roots Tab

   
Band: Sepultura
Song Roots Bloody Roots
Album: Roots (The Roots of Sepultura)
Guitar 1-Max Calavera
Guitar 2-Andreas Kisser
Transcriber: Robert Johnstone
Standard Tuning

This album is much different compared to Arise, Beneath the Remains and the older ones. Ever since
Chaos A.D. they have become more Jungle Metal...I suppose it's their roots...

N.B.!!! If you look at riff 1 and you just bend the strings you won't get the right 
so listen to the song for timing and rhythm

Riff 1 (Guitar 1)
E--------------------------------------------------------------------------------|
B--------------------------------------------------------------------------------|
G--------------------------------------------------------------------------------|
D--------------------------------------------------------------------------------|
A---1fb-1fb-1fb-1fb-1fb-1fb-1fb-1fb-1fb-1fb-1fb-1fb-1fb-1fb-1fb-1fb-1fb----------|
E---1fb-1fb-1fb-1fb-1fb-1fb-1fb-1fb-1fb-1fb-1fb-1fb-1fb-1fb-1fb-1fb-1fb----------|

Riff 1.2 (Guitar 2)
E--------------------------------------------------------------------------|
B--------------------------------------------------------------------------|
G-16b-16b-16b-16b-16b-16b-16b-16b-16b-16b-16b-16b-16b-16b------------------|
D--------------------------------------------------------------------------|
A--------------------------------------------------------------------------|
E--------------------------------------------------------------------------|

Riff 1.2(Continued) (Guitar 2)
E-------------------------------------------------------|
B-------------------------------------------------------|
G-16b-16b-16b-16b-16b-16b-16b-16b-16b-16b---------------|
D-------------------------------------------------------|
A-------------------------------------------------------|
E-------------------------------------------------------|

Riff 2 (Guitar 2)
Roots bloody roots...
E------------------------------------------|
B------------------------------------------|
G------------------------------------------|repeat 4 times
D------------------------------------------|
A--1fb-1fb-1fb-1fb-1fb-1-s-4-4-------------|
E--1fb-1fb-1fb-1fb-1fb-1-s-4-4-------------|

I believe in our fate...
It's all we wanna be...watch me...
E--------------------------------------------------------------------------------|
B--------------------------------------------------------------------------------|
G--------------------------------------------------------------------------------|
D--------------------------------------------------------------------------------|
A---1fb-1fb-1fb-1fb-1fb-1fb-1fb-1fb-1fb-1fb-1fb-1fb-1fb-1fb-1fb-1fb-1fb----------|
E---1fb-1fb-1fb-1fb-1fb-1fb-1fb-1fb-1fb-1fb-1fb-1fb-1fb-1fb-1fb-1fb-1fb----------|

Riff 3 (Guitar 2)
E------------------------------------|
B------------------------------------|
G------------------------------------|repeat 2 times
D------------------------------------|
A----5-5-5s3-3-3s2-2-2s1-1-1---------|
E----5-5-5s3-3-3s2-2-2s1-1-1---------|

I said we growing everyday...
stronger in every way...
I'll take you to a place where we shall find our roots...
E--------------------------------------------------------------------------------|
B--------------------------------------------------------------------------------|
G--------------------------------------------------------------------------------|
D--------------------------------------------------------------------------------|
A---1fb-1fb-1fb-1fb-1fb-1fb-1fb-1fb-1fb-1fb-1fb-1fb-1fb-1fb-1fb-1fb-1fb----------|
E---1fb-1fb-1fb-1fb-1fb-1fb-1fb-1fb-1fb-1fb-1fb-1fb-1fb-1fb-1fb-1fb-1fb----------|

Riff 2 (Guitar 2)
Roots bloody roots...
E------------------------------------------|
B------------------------------------------|
G------------------------------------------|repeat 4 times
D------------------------------------------|
A--1fb-1fb-1fb-1fb-1fb-1-s-4-4-------------|
E--1fb-1fb-1fb-1fb-1fb-1-s-4-4-------------|
[ Tab from: http://www.guitartabs.cc/tabs/s/sepultura/roots_bloody_roots_tab_ver_2.html ]
All I wanna see...
Set us free...
Why can't you see, can't you feel, this is real..oooaahh
E--------------------------------------------------------------------------------|
B--------------------------------------------------------------------------------|
G--------------------------------------------------------------------------------|
D--------------------------------------------------------------------------------|
A---1fb-1fb-1fb-1fb-1fb-1fb-1fb-1fb-1fb-1fb-1fb-1fb-1fb-1fb-1fb-1fb-1fb----------|
E---1fb-1fb-1fb-1fb-1fb-1fb-1fb-1fb-1fb-1fb-1fb-1fb-1fb-1fb-1fb-1fb-1fb----------|

Riff 4 (Guitar 1)
E----------------------------------------|
B----------------------------------------|
G----------------------------------------|
D----------------------------------------|
A---2-2r---2-2r--2-2r--2-2r--2-2---------|
E---2-2r---2-2r--2-2r--2-2r--2-2---------|

Guitar 2
E------------------------------------------------------------------------------|
B------------------------------------------------------------------------------|
G-16b-16b-16b-16b-16b-16b-16b-16b-16b-16b-16b-16b-16b-16b-16b-16b-16b-16b-16b--|
D------------------------------------------------------------------------------|
A------------------------------------------------------------------------------|
E------------------------------------------------------------------------------|

Guitar 2
We don't need to change our ways...
E--------------------------------------------------------------------------------|
B--------------------------------------------------------------------------------|
G--------------------------------------------------------------------------------|
D--------------------------------------------------------------------------------|
A---1fb-1fb-1fb-1fb-1fb-1fb-1fb-1fb-1fb-1fb-1fb-1fb-1fb-1fb-1fb-1fb-1fb----------|
E---1fb-1fb-1fb-1fb-1fb-1fb-1fb-1fb-1fb-1fb-1fb-1fb-1fb-1fb-1fb-1fb-1fb----------|

Guitar 1
E------------------------------------|
B------------------------------------|
G------------------------------------|repeat 2 times
D------------------------------------|
A----5-5-5s3-3-3s2-2-2s1-1-1---------|
E----5-5-5s3-3-3s2-2-2s1-1-1---------|

Solo (guitar 2)
E------------------------------------------------------------------------------------|
B------------------------------------------------------------------------------------|
G-16fb-16fb-16fb-16fb-16fb-16fb-s-1fb-1fb---18fb-18fb-18fb-18fb-18fb-18fb-s-1fb-1fb--|
D------------------------------------------------------------------------------------|
A------------------------------------------------------------------------------------|
E------------------------------------------------------------------------------------|

Solo continued still by guitar 2
E-------------------------------------------------------------------------------------|
B-------------------------------------------------------------------------------------|
G--20fb-20fb-20fb-20fb-20fb-20fb-s-1fb-1fb---22fb-22fb-22fb-22fb-22fb-22fb-s-1fb-1fb--|
D-------------------------------------------------------------------------------------|
A-------------------------------------------------------------------------------------|
E-------------------------------------------------------------------------------------|

For the last bit of the solo just slide your finger up and down on all the frets very
fast on the "g" string

Guitar 1 plays this during the solo
E--------------------------------------------------------------------------------|
B--------------------------------------------------------------------------------|
G--------------------------------------------------------------------------------|
D--------------------------------------------------------------------------------|
A---1fb-1fb-1fb-1fb-1fb-1fb-1fb-1fb-1fb-1fb-1fb-1fb-1fb-1fb-1fb-1fb-1fb----------|
E---1fb-1fb-1fb-1fb-1fb-1fb-1fb-1fb-1fb-1fb-1fb-1fb-1fb-1fb-1fb-1fb-1fb----------|

Riff 5 (Guitar 1&2)
E-------------------------------------------|
B-------------------------------------------|
G-------------------------------------------|repeat 4 times
D-------------------------------------------|
A---1s2---1s2---1s2---1s2----1--1-----------|
E---1s2---1s2---1s2---1s2----1--1-----------|

Riff 6 (Guitar 2)
E---------------------------------|
B---------------------------------|
G-----------------------repeat 18-| times then fade out
D---------------------------------|
A---------------------------------|
E-1-1-1-1-1-0---------------------|

Keys:
fb-full bend
b-bend
s-slide
r-rest

There is a lot of bending involved in this tab so you just gonna have to get used to it, 
this tab is very easy
Everything is here so please rate it if you can.
The music video for this is also quite cool; you can find it on the chaos DVD
Comments