Sepultura - Roots Bloody Roots Chords & Tabs

 

Roots Bloody Roots Chords & Tabs

Sepultura Chords & Tabs

Version: 1 Type: Tab 0 ratings
1 star 2 stars 3 stars 4 stars 5 stars
comments

Roots Bloody Roots Tab

   
sepultura,roots bloody roots.
Tabbed by mark kerry,roger.kerry@which.net.
  
Sepultura
Roots Bloody Roots
Transcribed by Mark Kerry
Email markkerry@hotmail.com

Tuning: 1 and a half steps down = C#-F#-B-E-G#-C# 
                                             (Low to high)
Key:
PM = palm mute
h  = hammer on
/  = Slide
B  = bend
/\ = Whammy bar, push down then release

Intro (guitar 1)
|--------------------------------------------------------|
|--------------------------------------------------------|
|--------------------------------------------------------|
|--------------------------------------------------------|
|--------------------------------------------------------|
|---0h1-1-0h1-1-0h1-----0h1-1-0h1-1-0h1------------------|

Intro (Guitar 2)
|----------13--------13----13----------------------------|
|---15b17----(17)------(17)------------------------------|
|--------------------------------------------------------|
|--------------------------------------------------------|
|--------------------------------------------------------|
|--------------------------------------------------------|
                                                                              
Chorus (guitar 1&2)
|--------------------------------------------------------|
|--------------------------------------------------------|
|--------------------------------------------------------|
|--------------------------------------------------------|
|--------------------------------------------------------|            
|---0h1-1-0h1-1-0h2-----0h1-1-0h1-1-0h2------------------| 

Verse (guitar 1)
|--------------------------------------------------------|
|--------------------------------------------------------|
|--------------------------------------------------------|             
|--------------------------------------------------------|
|--------------------------------------------------------|
|---0h1-1-0h1-1-0h1-----0h1-1-0h1-1-0h1------------------|

Interlude (guitar 1&2)
|--------------------------------------------------------|
|--------------------------------------------------------|
|--------------------------------------------------------|
|--------------------------------------------------------|
|---8-8-8-7-7-7-6----3-3-4-------------------------------|
|---6-6-6-5-5-5-4--0-1-1-2-------------------------------|

Interlude 2
(guitar 1)    (guitar 2) 
|--------|   |13---------13--------13---------13---------|
|--------|   |15b17-(17)------(17)-------(17)------------|
|--------|   |-------------------------------------------|
|--------|   |-------------------------------------------|
|---2-2--|   |-------------------------------------------|
|---0-0--|   |-------------------------------------------|
PM  - -

Solo (guitar 1)
[ Tab from: http://www.guitartabs.cc/tabs/s/sepultura/roots_bloody_roots_tab.html ]
|--------------------------------------------------------|
|--14b--14b--xx-14/--14b--14b--xx-14/--------------------|
|--14b--14b--xx-14/--14b--14b--xx-14/--------------------|
|--------------------------------------------------------|
|--------------------------------------------------------|
|--------------------------------------------------------|
                                                                              
                                   /\/\/\/\/\   /\/\/\/\         
|-5\12~~~~~~~---5\11~~~~~~~------------------------------|
|-5\12~~~~~~~---5\11~~~~~~~------\13------------\13------|
|--------------------------------\12------------\13------|
|--------------------------------------------------------|
|--------------------------------------------------------|
|--------------------------------------------------------|

        /\     /\/\       /\     /\/\ 
|--------------------------------------------------------|
|--/1\12-/1\13~~-----/1\14-/1\12~~-----------------------|
|--/1\14-/1\13~~-----/1\12-/1\12~~-----------------------|
|--------------------------------------------------------|
|--------------------------------------------------------|
|--------------------------------------------------------|

This solo is so hard to figure out, but I think itís a
Pretty close guess. 

Rhythm behind the solo (guitar 2)
|--------------------------------------------------------|
|--------------------------------------------------------|
|--------------------------------------------------------|
|--------------------------------------------------------|
|---3-2-2-3-2-2-3-2--------------------------------------|
|---1-0-0-1-0-0-1-0--------------------------------------|
PM    - -   - -   -

Bridge (guitar 1&2)
|-------------------x1-| |------------------------x4-----|
|----------------------| |-------------------------------|
|----------------------| |-------------------------------|
|----------------------| |-------------------------------|
|---3-3-3-3-3-3-3-3----| |-3-2--4-3--3-2--4-3--3-3-------|
|---1-1-1-1-1-1-1-1----| |-1-0--2-1--1-0--2-1--1-1-------|
PM  - - - - - - - -

Riff before outro (Guitar 1)                                                                          
|--------------------------------------------------------|
|--------------------------------------------------------|
|--------------------------------------------------------|
|--------------------------------------------------------|
|--------------------------------------------------------|
|---0h1-1-1-1-1-0----0h1-1-1-1-1-0-----------------------|

Outro (guitar 1&2)
|--------------------------------------------------------|
|--------------------------------------------------------|
|--------------------------------------------------------|
|--------------------------------------------------------|
|-ó------------------------------------------------------|
|-ó-0h1-1-1-1-1-0---(X4-THEN)---0h1-1-1-1-1-0ó-12/1ó(X3)- |

(Guitar 1&2)
|--------------------------------------------------------|
|--------------------------------------------------------|
|--------------------------------------------------------|
|--------------------------------------------------------|
|--------------------------------------------------------|
|-ó-0h1-1-1-1-1------------------------------------------|

Thatís it. Please send corrections or comments.
 
:: Ultimate Guitar Archive :: 
http://www.ultimate-guitar.com 



Comments