Sepultura - Orgasmatron Chords & Tabs

 

Orgasmatron Chords & Tabs

Sepultura Chords & Tabs

Version: 3 Type: Tab 0 ratings
1 star 2 stars 3 stars 4 stars 5 stars
comments

Orgasmatron Tab

Band: Sepultura
Song: Orgasmatron
Album: Regnum Irae (Under siege)
Originally written& performed by: Motorhead
Transcriber: Robert Johnstone
Standard tuning

Intro: Just slide you pick on the top e string and use your whammy bar (Play around)

E--------------------------------------------|
B--------------------------------------------|
G---9---9-9-9-9------9---9-9-9-9-------------|
D---9---9-9-9-9------9---9-9-9-9-------------|
A---7---7-7-7-7------7---7-7-7-7-------------|
E---0---0-0-0-0------0---0-0-0-0-------------|

 Ahhh...
E--------------------------------------------|
B--------------------------------------------|
G---9---9-9-9-9------9---9-9-9-9-------------|
D---9---9-9-9-9------9---9-9-9-9-------------|
A---7---7-7-7-7------7---7-7-7-7-------------|
E---0---0-0-0-0------0---0-0-0-0-------------|

I am the one, Orgasmatron.....
E--------------------------------------------|
B--------------------------------------------|
G---9---9-9-9-9------9---9-9-9-9-------------|
D---9---9-9-9-9------9---9-9-9-9-------------|
A---7---7-7-7-7------7---7-7-7-7-------------|
E---0---0-0-0-0------0---0-0-0-0-------------|

E------------------------------|
B------------------------------|
G------------------------------|
D---7----7----7----7-----------|
A---7----7----7----7-----------|
E---5----5----5----5-----------|

Two thousand years of misery...
E--------------------------------------------|
B--------------------------------------------|
G---9---9-9-9-9------9---9-9-9-9-------------|
D---9---9-9-9-9------9---9-9-9-9-------------|
A---7---7-7-7-7------7---7-7-7-7-------------|
E---0---0-0-0-0------0---0-0-0-0-------------|

Hypocrisy a fair amount....
E-------------------------------|
B-------------------------------|
G---7---7-----------------------|
D---7---7----5-5h7-7------------|
A---5---5-----------------------|
E-------------------------------|

My name is called religion....
E--------------------------------------------|
B--------------------------------------------|
G---9---9-9-9-9------9---9-9-9-9-------------|
D---9---9-9-9-9------9---9-9-9-9-------------|
A---7---7-7-7-7------7---7-7-7-7-------------|
E---0---0-0-0-0------0---0-0-0-0-------------|

Sadistic sacred hole...
E----------------------------|
B----------------------------|
G---5------7------9----------|
D---5------7------9----------|
A---3------5------7----------|
E----------------------------|
[ Tab from: http://www.guitartabs.cc/tabs/s/sepultura/orgasmatron_tab_ver_3.html ]
I twist the roots, I rule the world...
E--------------------------------------------|
B--------------------------------------------|
G---9---9-9-9-9------9---9-9-9-9-------------|
D---9---9-9-9-9------9---9-9-9-9-------------|
A---7---7-7-7-7------7---7-7-7-7-------------|
E---0---0-0-0-0------0---0-0-0-0-------------|

I rub you and I slaughter you..
E------------------------------|
B------------------------------|
G------------------------------|
D---7----7----7----7-----------|
A---7----7----7----7-----------|
E---5----5----5----5-----------|

A deranged psychopath...
E--------------------------------------------|
B--------------------------------------------|
G---9---9-9-9-9------9---9-9-9-9-------------|
D---9---9-9-9-9------9---9-9-9-9-------------|
A---7---7-7-7-7------7---7-7-7-7-------------|
E---0---0-0-0-0------0---0-0-0-0-------------|

All my promises are lies...
E-------------------------------|
B-------------------------------|
G---7---7-----------------------|
D---7---7----5-5h7-7------------|
A---5---5-----------------------|
E-------------------------------|

And decide you fate
E----------------------------|
B----------------------------|
G---5------7------9----------|
D---5------7------9----------|
A---3------5------7----------|
E----------------------------|

Solo....

E--------------------------------------------|
B--------------------------------------------|
G---9---9-9-9-9------9---9-9-9-9-------------|
D---9---9-9-9-9------9---9-9-9-9-------------|
A---7---7-7-7-7------7---7-7-7-7-------------|
E---0---0-0-0-0------0---0-0-0-0-------------|

An army in for an fight
E--------------------------------------------|
B--------------------------------------------|
G---9---9-9-9-9------9---9-9-9-9-------------|
D---9---9-9-9-9------9---9-9-9-9-------------|
A---7---7-7-7-7------7---7-7-7-7-------------|
E---0---0-0-0-0------0---0-0-0-0-------------|

I hold a hammer drenched in blood
E------------------------------|
B------------------------------|
G------------------------------|
D---7----7----7----7-----------|
A---7----7----7----7-----------|
E---5----5----5----5-----------|

 And I will cut you down
E----------------------------|
B----------------------------|
G---5------7------9----------|
D---5------7------9----------|
A---3------5------7----------|
E----------------------------|

Outro
E--------------------------------------|
B--------------------------------------|
G---7-7-7-7-7-7-7-7-7-7-7-7------------|
D---7-7-7-7-7-7-7-7-7-7-7-7------------|
A---5-5-5-5-5-5-5-5-5-5-5-5------------|
E--------------------------------------|

Some of the lyrics might be wrong coz I can hardly hear what Max is singing, this whole 
is totally correct and you cannot say it's not......
Comments