Sepultura - Mass Hypnosis Chords & Tabs

 

Mass Hypnosis Chords & Tabs

Sepultura Chords & Tabs

Version: 2 Type: Tab 0 ratings
1 star 2 stars 3 stars 4 stars 5 stars
comments

Mass Hypnosis Tab

   
#----------------------------------PLEASE NOTE---------------------------------#
#This file is the author's own work and represents their interpretation of the #
#song. You may only use this file for private study, scholarship, or research. #
#------------------------------------------------------------------------------##

                                  MASS HYPNOSIS
                            As recorded by Sepultura
                    (From the 1989 Album BENEATH THE REMAINS)

Words by Max Cavalera and Andreas Kisser

Music by Max Cavalera, Igor Cavalera, Andreas Kisser, and Paulo Jr.


Gtr I (E A D G B E) - 'Rhythm Guitar 1'
Gtr II (E A D G B E) - 'Rhythm Guitar 2'
Gtr III (E A D G B E) - 'Lead Guitar'
Gtr IV (E A D G B E) - 'Clean Guitar'

 Intro
  Fast Rock Q=210
  N.C.(E)      N.C.(E)                           E5
 4/4
  Gtrs I, II
               PM-----------------------------------------|
  W            S S S S S S S S S S S S S S S S   Q  Q  Q  Q   4x
|----------||----------------------------------|--------------||
|----------||o---------------------------------|-------------o||
|----------||----------------------------------|--------------||
|----------||----------------------------------|--------------||
|----------||o---------------------------------|-2--2--2--2--o||
|-0--------||--0-0-0-0-0-0-0-0-0-0-0-0-0-0-0-0-|-0--0--0--0---||


    N.C.(E)                           E5
    Gtr III
    W                                  Q   Q   Q   Q
||----------------------------------|---------22-------|
||o---------------------------------|-----19------19\--|
||----------------------------------|-22---------------|
||----------------------------------|------------------|
||o---------------------------------|------------------|
||----------------------------------|------------------|
|
|   Gtrs I, II
|   PM--------------------------------------------------
|   S S S S S S S S S S S S S S S S    Q   Q   Q   Q
||----------------------------------|------------------|
||o---------------------------------|------------------|
||----------------------------------|------------------|
||----------------------------------|------------------|
||o---------------------------------|--2---2---2---2---|
||--0-0-0-0-0-0-0-0-0-0-0-0-0-0-0-0-|--0---0---0---0---|


  N.C.(E)                           E5
  W                                  Q   Q   Q   Q
|---------------------------------|---------------------||
|---------------------------------|-----19------19\----o||
|---------------------------------|-22------22----------||
|---------------------------------|---------------------||
|---------------------------------|--------------------o||
|---------------------------------|---------------------||
|
|-----------------------------------------------|
| S S S S S S S S S S S S S S S S    Q   Q   Q   Q
|---------------------------------|---------------------||
|---------------------------------|--------------------o||
|---------------------------------|---------------------||
|---------------------------------|---------------------||
|---------------------------------|--2---2---2---2-----o||
|-0-0-0-0-0-0-0-0-0-0-0-0-0-0-0-0-|--0---0---0---0------||


  N.C.(E)
  Gtrs I, II
  PM------------------------------------------------------------|
  E E E E S S E E E   S S E E E S S E S S E   S S E E E S S E E E
|-------------------|-----------------------|----------------------|
|-------------------|-----------------------|----------------------|
|-------------------|-----------------------|----------------------|
|-------------------|-----------------------|----------------------|
|-------------------|-----------------------|----------------------|
|-0-0-0-0-0-0-0-0-0-|-0-0-0-0-0-0-0-0-0-0-0-|-0-0-0-0-0-0-0-0-0-0--|


  PM--------------------------------------------------------------|
  S S E E E S S E S S E     S S E E E S S E E E   S S E E E E E E E   3x
|-----------------------||----------------------|---------------------||
|-----------------------||o---------------------|--------------------o||
|-----------------------||----------------------|---------------------||
|-----------------------||----------------------|---------------------||
|-----------------------||o---------------------|--------------------o||
|-0-0-0-0-0-0-0-0-0-0-0-||--0-0-0-0-0-0-0-0-0-0-|-0-0-0-0-0-0-0-0-0---||


                          E5
                         3/4
  PM-----------------------------|
  S S E E E S S E S S E   E Q  E Q
|-----------------------|-----------||
|-----------------------|-----------||
|-----------------------|-----------||
|-----------------------|-----------||
|-----------------------|-2-2--2-2--||
|-0-0-0-0-0-0-0-0-0-0-0-|-0-0--0-0--||


    Faster Q=240
    N.C.
   4/4
    PM--------------------------------------------------------------|
    S S S S S S S S S S S S S S S S   S S S S S S S S S S S S S S S S  4x
||----------------------------------|----------------------------------||
||o---------------------------------|---------------------------------o||
||----------------------------------|----------------------------------||
||----------------------------------|----------------------------------||
||o---------------------------------|---------------------------------o||
||--2-2-2-2-0-0-0-0-2-2-2-2-0-0-0-0-|-2-2-2-2-0-0-0-0-4-4-4-4-0-0-0-0--||


   1st Verse
    PM--------------------------------------------------------------|
    S S S S S S S S S S S S S S S S   S S S S S S S S S S S S S S S S   4x
||----------------------------------|-----------------------------------||
||o---------------------------------|----------------------------------o||
||----------------------------------|-----------------------------------||
||----------------------------------|-----------------------------------||
||o---------------------------------|----------------------------------o||
||--2-2-2-2-0-0-0-0-2-2-2-2-0-0-0-0-|-2-2-2-2-0-0-0-0-4-4-4-4-0-0-0-0---||


 Chorus
  N.C.(E)           B5   Bb5    N.C.(E)           B5   Bb5
  PM------------|               PM------------|
  E E E E E E E E   H    H      E E E E E E E E   H    H
|-----------------|-----------|-----------------|-----------|
|-----------------|-----------|-----------------|-----------|
|-----------------|-----------|-----------------|-----------|
|-----------------|-4----3----|-----------------|-4----3----|
|-----------------|-2----1----|-----------------|-2----1----|
|-0-0-0-0-0-0-0-0-|-----------|-0-0-0-0-0-0-0-0-|-----------|


   2nd Verse
    N.C.
    PM--------------------------------------------------------------|
    S S S S S S S S S S S S S S S S   S S S S S S S S S S S S S S S S   4x
||----------------------------------|-----------------------------------||
||o---------------------------------|----------------------------------o||
||----------------------------------|-----------------------------------||
||----------------------------------|-----------------------------------||
||o---------------------------------|----------------------------------o||
||--2-2-2-2-0-0-0-0-2-2-2-2-0-0-0-0-|-2-2-2-2-0-0-0-0-4-4-4-4-0-0-0-0---||


 Chorus
  N.C.(E)           B5   Bb5    E5                B5   Bb5
  PM------------|               PM------------|
  E E E E E E E E   H    H      E E E E E E E E   H    H
|-----------------|-----------|-----------------|-----------|
|-----------------|-----------|-----------------|-----------|
|-----------------|-----------|-----------------|-----------|
|-----------------|-4----3----|-----------------|-4----3----|
|-----------------|-2----1----|-----------------|-2----1----|
|-0-0-0-0-0-0-0-0-|-----------|-0-0-0-0-0-0-0-0-|-----------|


    N.C.(E)                         B5   Bb5
    PM--------------------------|
    E S S S S S S S S S S S S S S   H    H
||--------------------------------|------------||
||o-------------------------------|-----------o||
||--------------------------------|------------||
||--------------------------------|-4----3-----||
||o-------------------------------|-2----1----o||
||--0-0-0-0-0-0-0-0-0-0-0-0-0-0-0-|------------||


  N.C.(E)                           E5
  PM---------------------------------------------
  S S S S S S S S S S S S S S S S   Q  Q  Q  Q
|---------------------------------|-------------|
|---------------------------------|-------------|
|---------------------------------|-------------|
|---------------------------------|-------------|
|---------------------------------|-2--2--2--2--|
|-0-0-0-0-0-0-0-0-0-0-0-0-0-0-0-0-|-0--0--0--0--|


  N.C.(E)
 -------------------------------|
  S S S S S S S S S S S S S S S S
|-----------------------------------|
|-----------------------------------|
|-----------------------------------|
|-----------------------------------|
|-----------------------------------|
|-0-0-0-0-0-0-0-0-0-0-0-0-0-0-0-0---|


  E5              N.C.(E)                           E5
  PM|    PM|      PM-----------------------------------------|
  E E Q  E E Q    S S S S S S S S S S S S S S S S   Q  Q  Q  Q
|---------------|---------------------------------|--------------|
|---------------|---------------------------------|--------------|
|---------------|---------------------------------|--------------|
|---------------|---------------------------------|--------------|
|-2-2----2-2----|---------------------------------|-2--2--2--2---|
|-0-0----0-0----|-0-0-0-0-0-0-0-0-0-0-0-0-0-0-0-0-|-0--0--0--0---|


  N.C.(E)                           E5
                                   7/8
  PM----------------------------------|    PM|
  S S S S S S S S S S S S S S S S   E E Q  E E  E
|---------------------------------|----------------||
|---------------------------------|----------------||
|---------------------------------|----------------||
|---------------------------------|----------------||
|---------------------------------|-2-2----2-2-----||
|-0-0-0-0-0-0-0-0-0-0-0-0-0-0-0-0-|-0-0----0-0-12\-||


   Bridge
    N.C.
   4/4
    PM--------------------------------------------------------------|
    S S S S S S S S S S S S S S S S   S S S S S S S S S S S S S S S S
||----------------------------------|---------------------------------|
||o---------------------------------|---------------------------------|
||----------------------------------|---------------------------------|
||----------------------------------|---------------------------------|
||o---------------------------------|-------------------------3-3-3-3-|
||--2-2-2-2-2-2-2-2-2-2-2-2-2-2-2-2-|-3-3-3-3-3-3-3-3-2-2-2-2---------|


  PM--------------------------------------------------------------|
  S S S S S S S S S S S S S S S S   S S S S S S S S S S S S S S S S  4x
|---------------------------------|----------------------------------||
|---------------------------------|---------------------------------o||
|---------------------------------|----------------------------------||
|---------------------------------|----------------------------------||
|---------------------------------|---------------------------------o||
|-2-2-2-2-2-2-2-2-2-2-2-2-2-2-2-2-|-3-3-3-3-3-3-3-3-0-0-0-0-3-3-3-3--||


   3rd Verse
    PM--------------------------------------------------------------|
    S S S S S S S S S S S S S S S S   S S S S S S S S S S S S S S S S   4x
||----------------------------------|-----------------------------------||
||o---------------------------------|----------------------------------o||
||----------------------------------|-----------------------------------||
||----------------------------------|-----------------------------------||
||o---------------------------------|----------------------------------o||
||--2-2-2-2-0-0-0-0-2-2-2-2-0-0-0-0-|-2-2-2-2-0-0-0-0-4-4-4-4-0-0-0-0---||


    Bb5
      PM------------------------|     PM--------|
    E S S S S S S S S S S S S S S   E S S S S S S Q  Q
||--------------------------------|---------------------|
||o-------------------------------|---------------------|
||--------------------------------|---------------------|
||--3-----------------------------|-3-------------3--3--|
||o-1-1-1-1-1-1-1-1-1-1-1-1-1-1-1-|-1-1-1-1-1-1-1-1--1--|
||--------------------------------|---------------------|


  N.C.(E)
  S S S S S S S S S S S S S S S S
|-----------------------------------|
|-----------------------------------|
|-----------------------------------|
|-----------------------------------|
|-7-7-7-7-7-7-7-7-7-7-7-7-7-7-7-7---|
|-----------------------------------|


  1.                                  2.
  S S S S S S S S S S S S S S S S      S S S S S S S S S S S S Q
|----------------------------------||------------------------------||
|---------------------------------o||------------------------------||
|----------------------------------||------------------------------||
|----------------------------------||------------------------------||
|-7-7-7-7-7-7-7-7-7-7-7-7-7-7-7-7-o||--7-7-7-7-7-7-7-7-7-7-7-7-----||
|----------------------------------||--------------------------0---||


  Half time Q=120
  F5
  Gtr III
  Q  S S S S S S S S S S S S
|----------------------------|
|----------------------------|
|----------------------------|
|----6-----6-----6-----------|
|------7-8---7-8---8-7-6-----|
|------------------------8-6-|
|
| Gtrs I, II
| W
|----------------------------|
|----------------------------|
|----------------------------|
|----------------------------|
|-3--------------------------|
|-1--------------------------|


  Q  S S S S S S S S S S S S   W
|----------------------------|-------------------------||
|----------------------------|-------------------------||
|----------------------------|-------------------------||
|----6-----6-----6-----------|-------------------------||
|------7-8---7-8---8-7-6-----|-------------------------||
|------------------------8-6-|-------------------------||
|
| W                            E S S +S  S E S E S E E
|----------------------------|-------------------------||
|----------------------------|-------------------------||
|----------------------------|-------------------------||
|----------------------------|-------------------------||
|-3--------------------------|-3---3-(3)---3---3---3---||
|-1--------------------------|-1---1-(1)---1---1---1---||


    N.C.    B5N.C.    B5N.C.B5    N.C.    B5N.C.    B5N.B5  N.C.(E)
                                                           2/4
    Gtrs I, II
    PM----|   PM----|   PM|       PM----|   PM----|   PM
    S S S S E S S S S E S S E  3x S S S S E S S S S E E E   S S E S S E
||-----------------------------||-------------------------|-------------||
||o---------------------------o||-------------------------|-------------||
||-----------------------------||-------------------------|-------------||
||----------4---------4-----4--||---------4---------4---4-|-------------||
||o---------2---------2-----2-o||---------2---------2---2-|-------------||
||--1-1-1-1---1-1-1-1---1-1----||-1-1-1-1---1-1-1-1---1---|-0-0---0-0---||


                                          Q=130
    N.C.(F)                               N.C.(G#)
   4/4
    Gtr III
    S S S S E   S S S S S S T T S E    4x  S S S S S  S S S  S S  S S S S S S
||----------5-----------5-7-8p7p5------||-------------------------------------|
||o-----6-9---------6-9-----------9---o||-------------------------------------|
||--7-9---------7-9--------------------||-10-9-7-9-7----7------7--------------|
||-------------------------------------||------------10---9-10---10-9-7-9-7---|
||o-----------------------------------o||-----------------------------------8-|
||-------------------------------------||-------------------------------------|
|
|   Gtrs I, II
|   PM----------------------------------------------------------------------|
|   S S S S S S S S S S S S S   S S S  4x  S S S S S  S S S  S S  S S S S S S
||-------------------------------------||-------------------------------------|
||o-----------------------------------o||-------------------------------------|
||-------------------------------------||-------------------------------------|
||-------------------------------------||-------------------------------------|
||o-----------------------------------o||-------------------------------------|
||--1-1-1-1-1-1-1-1-1-1-1-1-1---1-1-1--||--4-4-4-4-4--4-4-4--4-4--4-4-4-4-4-4-|


   S S S S S  S S S  S S  S S S S S S    S S S S S  S S S  S S  S S S S S S
|-------------------------------------|-------------------------------------|
|-------------------------------------|-------------------------------------|
|-10-9-7-9-7----7------7--------------|-10-9-7-9-7----7------7--------------|
|------------10---9-10---10-9-7-6-----|------------10---9-10---10-9-7-6-----|
|---------------------------------8-8-|---------------------------------8-8-|
|-------------------------------------|-------------------------------------|
|
|  PM---------------------------------------------------------------------|
|  S S S S S  S S S  S S  S S S S S S    S S S S S  S S S  S S  S S S S S S
|-------------------------------------|-------------------------------------|
|-------------------------------------|-------------------------------------|
|-------------------------------------|-------------------------------------|
|-------------------------------------|-------------------------------------|
|-------------------------------------|-------------------------------------|
|--4-4-4-4-4--4-4-4--4-4--4-4-4-4-4-4-|--4-4-4-4-4--4-4-4--4-4--4-4-4-4-4-4-|


                                         Q=142
                                         N.C.(E)
   S S S S S  S S S  S S  S S S S S S    W
|-------------------------------------||------------------------|
|-------------------------------------||------------------------|
|-10-9-7-9-7----7------7--------------||------------------------|
|------------10---9-10---10-9-7-6-----||------------------------|
|---------------------------------8-7-||------------------------|
|-------------------------------------||------------------------|
|
|  PM----------------------------------------------------|
|  S S S S S  S S S  S S  S S S S S S    S S S S S S S S E E Q
|-------------------------------------||------------------------|
|-------------------------------------||------------------------|
|-------------------------------------||------------------------|
|-------------------------------------||------------------------|
|-------------------------------------||------------------------|
|--4-4-4-4-4--4-4-4--4-4--4-4-4-4-4-4-||-0-0-0-0-0-0-0-0-0------|


  Gtrs I, II
  PM--------------|        PM--------------|        PM--------------|
  S S S S S S S S E E Q    S S S S S S S S E E Q    S S S S S S S S E E  Q
|------------------------|------------------------|---------------------------||
|------------------------|------------------------|---------------------------||
|------------------------|------------------------|---------------------------||
|------------------------|------------------------|---------------------------||
|------------------------|------------------------|---------------------------||
|-0-0-0-0-0-0-0-0-0------|-0-0-0-0-0-0-0-0-0------|-0-0-0-0-0-0-0-0-0---12\---||


    E5                       D5/E                     F5
    Gtr I
    PM--------------|        PM--------------|          PM|   PM----|
    S S S S S S S S E E Q    S S S S S S S S E E Q    E E E E E E E E
||-------------------------|------------------------|-----------------|
||o------------------------|------------------------|-----------------|
||-------------------------|------------------------|-5-----5---------|
||-------------------------|------------------------|-3-----3---------|
||o------------------------|------------------------|-3-----3---------|
||--0-0-0-0-0-0-0-0-0------|-0-0-0-0-0-0-0-0-0------|---0-0---0-0-0-0-|
|
|   Gtr II
|                                                       PM|   PM----|
|   W                        W                        E E E E E E E E
||-------------------------|------------------------|-----------------|
||o------------------------|------------------------|-----------------|
||--4----------------------|-2----------------------|-5-----5---------|
||--2----------------------|-0----------------------|-3-----3---------|
||o-2----------------------|-0----------------------|-3-----3---------|
||-------------------------|------------------------|---0-0---0-0-0-0-|


  1.                  2.
                                          C5                Ab5
  Gtrs I, II
    PM|   PM----|       PM|   PM----|
  E E E E E E E E     E E E E E E E E     W                 W                4x
|------------------||-----------------||------------------|------------------||
|-----------------o||-----------------||o-----------------|-----------------o||
|-5-----5----------||-5-----5---------||------------------|------------------||
|-3-----3----------||-3-----3---------||--5---------------|------------------||
|-3-----3---------o||-3-----3---------||o-3---------------|-6---------------o||
|---0-0---0-0-0-0--||---0-0---0-0-0-0-||------------------|-4----------------||
|
|                                         Gtr IV
| W                   W                   E E E E E E E E   E E E E E E E E  4x
|------------------||-----------------||------------------|------------------||
|-----------------o||-----------------||o-----------------|-----------------o||
|------------------||-----------------||------0-------0---|-----0-------0----||
|------------------||-----------------||----5---5---5---5-|---5---5---5---5--||
|-----------------o||-----------------||o-3-------3-------|-----------------o||
|------------------||-----------------||------------------|-4-------4--------||

[ Tab from: http://www.guitartabs.cc/tabs/s/sepultura/mass_hypnosis_tab_ver_2.html ]
  C5                Ab5
  Gtr III
  W                   Q.      E  +E   Q.
|-----------------|--------------------------|
|-----------------|--------------------------|
|-5---------------|-/12------13-(13)-12------|
|-----------------|--------------------------|
|-3---------------|-/10------11-(11)-10------|
|-----------------|--------------------------|
|
| Gtrs I, II
| W                   W
|-----------------|--------------------------|
|-----------------|--------------------------|
|-----------------|--------------------------|
|-5---------------|--------------------------|
|-3---------------|---6----------------------|
|-----------------|---4----------------------|
|
| Gtr IV
| E E E E E E E E     E  E E  E   E   E  E E
|-----------------|--------------------------|
|-----------------|--------------------------|
|-----0-------0---|--------0-------------0---|
|---5---5---5---5-|------5----5-------5----5-|
|-3-------3-------|--------------------------|
|-----------------|---4-----------4----------|


  C5                Ab5
  W                   Q.      E  +E   Q    E
|-----------------|---------------------------||
|-----------------|---------------------------||
|-5---------------|-/12------13-(13)-12---10S=||
|-----------------|---------------------------||
|-3---------------|-/10------11-(11)-10-------||
|-----------------|---------------------------||
|
| W                   W
|-----------------|---------------------------||
|-----------------|---------------------------||
|-----------------|---------------------------||
|-5---------------|---------------------------||
|-3---------------|---6-----------------------||
|-----------------|---4-----------------------||
|
| E E E E E E E E     E  E E  E   E   E E  E
|-----------------|---------------------------||
|-----------------|---------------------------||
|-----0-------0---|--------0------------0-----||
|---5---5---5---5-|------5----5-------5----5--||
|-3-------3-------|---------------------------||
|-----------------|---4-----------4-----------||


 Guitar Solo
  G5                       F5
  Gtr III
   ~~
                   |--3--|
   H            E  T  T  T  S  +S   S  E
|----------------------------------------|
|----------------------------------------|
|-12-----------15-12h15p12s10-(10)-12-13-|
|----------------------------------------|
|----------------------------------------|
|----------------------------------------|
|
| Gtrs I, II
|    PM|   PM|
|  E S S E S S  E  S        S  +S   S  E
|----------------------------------------|
|----------------------------------------|
|----------------------------------------|
|----------------------------------------|
|--5-5-5-5-5-5--5--5--------3--(3)--3--3-|
|--3-3-3-3-3-3--3--3--------1--(1)--1--1-|


  G5           C#5                    G#5  G5                       F5
      ~~~                                   ~~
                   |--3--|                                  |--3--|
   E  Q.        E  T  T  T  S  +S   S  E    H            E  T  T  T  S  +S   S  E
|----------------------------------------|-----------------------------------------|
|----------------------------------------|-----------------------------------------|
|-13-12--------13-12h13p12p10-(10)-12-13-|-12-----------15-12h15p12s10-(10)-12-13--|
|----------------------------------------|-----------------------------------------|
|----------------------------------------|-----------------------------------------|
|----------------------------------------|-----------------------------------------|
|
|                                             PM|   PM|
|  E  S  S E E  E  S        S  +S   S  E    E S S E S S  E  S        S  +S   S  E
|----------------------------------------|-----------------------------------------|
|----------------------------------------|-----------------------------------------|
|----------------------------------------|-----------------------------------------|
|---------------6--6--------6--(6)--6----|-----------------------------------------|
|--5--5--5-5-5--4--4--------4--(4)--4--6-|--5-5-5-5-5-5--5--5--------3--(3)--3--3--|
|--3--3--3-3-3-------------------------4-|--3-3-3-3-3-3--3--3--------1--(1)--1--1--|


  G5           C#5                    G#5
      ~~~
                   |--3--|
   E  Q.        E  T  T  T  S  +S   S  S  S
|-------------------------------------------|
|-------------------------------------------|
|-13-12--------13-12h13p12p10-(10)-12-12h13-|
|-------------------------------------------|
|-------------------------------------------|
|-------------------------------------------|
|
|  E  S  S E E  E  S        S  +S   S  E
|-------------------------------------------|
|-------------------------------------------|
|-------------------------------------------|
|---------------6--6--------6--(6)--6-------|
|--5--5--5-5-5--4--4--------4--(4)--4--6----|
|--3--3--3-3-3-------------------------4----|


  G5                       F5              G5           C#5                    G#5
   ~~                                          ~~~
                   |--3--|                                  |--3--|
   H            E  T  T  T  S  +S   S  E    E  Q.        E  T  T  T  S  +S   S  E
|-15-----------18-15h18p15s13-(13)-15-16-|-16-15--------16-15h16p15p13-(13)-15-16--|
|----------------------------------------|-----------------------------------------|
|----------------------------------------|-----------------------------------------|
|----------------------------------------|-----------------------------------------|
|----------------------------------------|-----------------------------------------|
|----------------------------------------|-----------------------------------------|
|
|    PM|   PM|
|  E S S E S S  E  S        S  +S   S  E    E  S  S E E  E  S        S  +S   S  E
|----------------------------------------|-----------------------------------------|
|----------------------------------------|-----------------------------------------|
|----------------------------------------|-----------------------------------------|
|----------------------------------------|---------------6--6--------6--(6)--6-----|
|--5-5-5-5-5-5--5--5--------3--(3)--3--3-|--5--5--5-5-5--4--4--------4--(4)--4--6--|
|--3-3-3-3-3-3--3--3--------1--(1)--1--1-|--3--3--3-3-3-------------------------4--|


  G5                       F5
   ~~
                   |--3--|
   H            E  T  T  T  S  +S   S  E
|-15-----------18-15h18p15s13-(13)-15-16-|
|----------------------------------------|
|----------------------------------------|
|----------------------------------------|
|----------------------------------------|
|----------------------------------------|
|
|    PM|   PM|
|  E S S E S S  E  S        S  +S   S  E
|----------------------------------------|
|----------------------------------------|
|----------------------------------------|
|----------------------------------------|
|--5-5-5-5-5-5--5--5--------3--(3)--3--3-|
|--3-3-3-3-3-3--3--3--------1--(1)--1--1-|


  G5           C#5                    G#5     C5
      ~~~                                      ~~~
                   |--3--|
   E  Q.        E  T  T  T  S  +S   S  S  S    H.       T  T  T  T  E
|-16-15--------16-15h16p15p13-(13)-15-15h16-|-20-------20h21p20p18----|
|-------------------------------------------|----------------------21-|
|-------------------------------------------|-------------------------|
|-------------------------------------------|-------------------------|
|-------------------------------------------|-------------------------|
|-------------------------------------------|-------------------------|
|
|  E  S  S E E  E  S        S  +S   S  E       W
|-------------------------------------------|-------------------------|
|-------------------------------------------|-------------------------|
|-------------------------------------------|-------------------------|
|---------------6--6--------6--(6)--6-------|--5----------------------|
|--5--5--5-5-5--4--4--------4--(4)--4--6----|--3----------------------|
|--3--3--3-3-3-------------------------4----|-------------------------|


  Ab5
               ~~~~~~~
   E  S  S  E  E  +Q.    S  S
|-----------------------------|
|-20-21-20-18-18-(18)------18-|
|-----------------------20----|
|-----------------------------|
|-----------------------------|
|-----------------------------|
|
|  W
|-----------------------------|
|-----------------------------|
|-----------------------------|
|-----------------------------|
|--6--------------------------|
|--4--------------------------|


     C5                                                         Eb5     C#5
                                                                         ~~~~~~~
                     |--3--|  |------6-------|        |--3--|
   a  E  S  S  S  S  S  S  S  S  S  S  S  S  S  S  S  S  S  S    Q    E  E  +Q    +E   E
|----------------18-------------------------------------------|----------------------------|
|-18h20-18-20-20----21-20-18-------------------18-------------|----------------------------|
|----------------------------20-19-17----17-19----20-19-17----|------17-17-(17)--(17)\-----|
|-------------------------------------20-------------------20-|-20-------------------------|
|-------------------------------------------------------------|----------------------------|
|-------------------------------------------------------------|------------------------x/--|
|
|     W                                                          Q.      E  +H
|-------------------------------------------------------------|----------------------------|
|-------------------------------------------------------------|----------------------------|
|-------------------------------------------------------------|----------------------------|
|-----5-------------------------------------------------------|--8-------6--(6)------------|
|-----3-------------------------------------------------------|--6-------4--(4)------------|
|-------------------------------------------------------------|----------------------------|


  C5                        Ab5
   E  E  E  E  E  E  E  E    E  E  E  E  E  E  E  E
|-------------------------|-------------------------|
|-------------------------|-------------------------|
|-------------------------|-------------------------|
|-10s12-12-12-12s13-13-13-|-13s15-15-15-15s17-17-17-|
|-------------------------|-------------------------|
|--8s10-10-10-10s11-11-11-|-11s13-13-13-13s15-15-15-|
|
|  W                         W
|-------------------------|-------------------------|
|-------------------------|-------------------------|
|-------------------------|-------------------------|
|--5----------------------|-------------------------|
|--3----------------------|--6----------------------|
|-------------------------|--4----------------------|


  C5                                       Eb5       C#5
                                                      ~~~~~~~
      |--3--|           |--3--|
   E  S  S  S  E  E  E  S  S  S  E  E    A  E   E  E  E  +Q    +Q
|-------------------------------------|-------------------------------||
|-------------------------------------|-------------------------------||
|-------------------------------------|-------------------------------||
|-18-17s18s17s15-17-18-17s18s17s15-17-|-17s18--17-15-17-(17)--(17)\---||
|-------------------------------------|-------------------------------||
|-16-15s16s15s13-15-16-15s16s15s13-15-|-15s16--15-13-15-(15)--(15)\---||
|
|  W                                        Q.        E  +H
|-------------------------------------|-------------------------------||
|-------------------------------------|-------------------------------||
|-------------------------------------|-------------------------------||
|--5----------------------------------|-----8---------6--(6)----------||
|--3----------------------------------|-----6---------4--(4)----------||
|-------------------------------------|-------------------------------||


  Tempo I Q=210
  N.C.(E)                           E5
  W                                  Q   Q   Q   Q
|---------------------------------|---------22-------|
|---------------------------------|-----19------19\--|
|---------------------------------|-22---------------|
|---------------------------------|------------------|
|---------------------------------|------------------|
|---------------------------------|------------------|
|
| PM--------------------------------------------------
| S S S S S S S S S S S S S S S S    Q   Q   Q   Q
|---------------------------------|------------------|
|---------------------------------|------------------|
|---------------------------------|------------------|
|---------------------------------|------------------|
|---------------------------------|--2---2---2---2---|
|-0-0-0-0-0-0-0-0-0-0-0-0-0-0-0-0-|--0---0---0---0---|


  N.C.(E)                           E5
  W                                  Q   Q   Q   Q
|---------------------------------|--------------------|
|---------------------------------|-----19------19\----|
|---------------------------------|-22------22---------|
|---------------------------------|--------------------|
|---------------------------------|--------------------|
|---------------------------------|--------------------|
|
|-----------------------------------------------|
| S S S S S S S S S S S S S S S S    Q   Q   Q   Q
|---------------------------------|--------------------|
|---------------------------------|--------------------|
|---------------------------------|--------------------|
|---------------------------------|--------------------|
|---------------------------------|--2---2---2---2-----|
|-0-0-0-0-0-0-0-0-0-0-0-0-0-0-0-0-|--0---0---0---0-----|


  N.C.(E)                           E5
  W                                  Q   Q   Q   Q
|---------------------------------|---------22-------|
|---------------------------------|-----19------19\--|
|---------------------------------|-22---------------|
|---------------------------------|------------------|
|---------------------------------|------------------|
|---------------------------------|------------------|
|
| PM--------------------------------------------------
| S S S S S S S S S S S S S S S S    Q   Q   Q   Q
|---------------------------------|------------------|
|---------------------------------|------------------|
|---------------------------------|------------------|
|---------------------------------|------------------|
|---------------------------------|--2---2---2---2---|
|-0-0-0-0-0-0-0-0-0-0-0-0-0-0-0-0-|--0---0---0---0---|


  N.C.(E)
  W
|-----------------------------------|
|-----------------------------------|
|-----------------------------------|
|-----------------------------------|
|-----------------------------------|
|-----------------------------------|
|
|-------------------------------|
| S S S S S S S S S S S S S S S S
|-----------------------------------|
|-----------------------------------|
|-----------------------------------|
|-----------------------------------|
|-----------------------------------|
|-0-0-0-0-0-0-0-0-0-0-0-0-0-0-0-0---|


                    Faster Q=240
  E5                N.C.(E)                                           Bb5
                    Gtrs I, II
  PM|    PM|        PM----------------------------------------------|
  E E Q  E E Q      S S S S S S S S S S S S S S S S   E E E E S S S S Q   4x
|---------------||----------------------------------|---------------------||
|---------------||o---------------------------------|--------------------o||
|---------------||----------------------------------|---------------------||
|---------------||----------------------------------|-----------------3---||
|-2-2----2-2----||o---------------------------------|-----------------1--o||
|-0-0----0-0----||--0-0-0-0-0-0-0-0-0-0-0-0-0-0-0-0-|-0-0---0-0-0-0-0-----||


   4th Verse
    N.C.
    PM--------------------------------------------------------------|
    S S S S S S S S S S S S S S S S   S S S S S S S S S S S S S S S S   4x
||----------------------------------|-----------------------------------||
||o---------------------------------|----------------------------------o||
||----------------------------------|-----------------------------------||
||----------------------------------|-----------------------------------||
||o---------------------------------|----------------------------------o||
||--2-2-2-2-0-0-0-0-2-2-2-2-0-0-0-0-|-2-2-2-2-0-0-0-0-4-4-4-4-0-0-0-0---||


   Chorus
    N.C.(E)           B5   Bb5    N.C.(E)           B5   Bb5
    PM------------|               PM------------|
    E E E E E E E E   H    H      E E E E E E E E   H    H
||------------------|-----------|-----------------|------------||
||o-----------------|-----------|-----------------|-----------o||
||------------------|-----------|-----------------|------------||
||------------------|-4----3----|-----------------|-4----3-----||
||o-----------------|-2----1----|-----------------|-2----1----o||
||--0-0-0-0-0-0-0-0-|-----------|-0-0-0-0-0-0-0-0-|------------||


   Bridge
    N.C.
    PM--------------------------------------------------------------|
    S S S S S S S S S S S S S S S S   S S S S S S S S S S S S S S S S
||----------------------------------|----------------------------------|
||o---------------------------------|----------------------------------|
||----------------------------------|----------------------------------|
||----------------------------------|----------------------------------|
||o---------------------------------|-------------------------3-3-3-3--|
||--2-2-2-2-2-2-2-2-2-2-2-2-2-2-2-2-|-3-3-3-3-3-3-3-3-2-2-2-2----------|


  PM--------------------------------------------------------------|
  S S S S S S S S S S S S S S S S   S S S S S S S S S S S S S S S S
|---------------------------------|----------------------------------||
|---------------------------------|---------------------------------o||
|---------------------------------|----------------------------------||
|---------------------------------|----------------------------------||
|---------------------------------|---------------------------------o||
|-2-2-2-2-2-2-2-2-2-2-2-2-2-2-2-2-|-3-3-3-3-3-3-3-3-0-0-0-0-3-3-3-3--||


 Outro
  N.C.(E)                           E5
  Gtr III
  W                                  Q   Q   Q   Q
|---------------------------------|---------22-------|
|---------------------------------|-----19------19\--|
|---------------------------------|-22---------------|
|---------------------------------|------------------|
|---------------------------------|------------------|
|---------------------------------|------------------|
|
| Gtrs I, II
| PM--------------------------------------------------
| S S S S S S S S S S S S S S S S    Q   Q   Q   Q
|---------------------------------|------------------|
|---------------------------------|------------------|
|---------------------------------|------------------|
|---------------------------------|------------------|
|---------------------------------|--2---2---2---2---|
|-0-0-0-0-0-0-0-0-0-0-0-0-0-0-0-0-|--0---0---0---0---|


  N.C.(E)
  W
|-----------------------------------|
|-----------------------------------|
|-----------------------------------|
|-----------------------------------|
|-----------------------------------|
|-----------------------------------|
|
|-------------------------------|
| S S S S S S S S S S S S S S S S
|-----------------------------------|
|-----------------------------------|
|-----------------------------------|
|-----------------------------------|
|-----------------------------------|
|-0-0-0-0-0-0-0-0-0-0-0-0-0-0-0-0---|


  E5                 N.C.(E)                           E5
   Q   Q   Q   Q     W                                  Q   Q   Q   Q
|------------------|---------------------------------|---------22--------|
|-----19------19\--|---------------------------------|-----19------19\---|
|-22------22-------|---------------------------------|-22----------------|
|------------------|---------------------------------|-------------------|
|------------------|---------------------------------|-------------------|
|------------------|---------------------------------|-------------------|
|
|  PM--------------------------------------------------------------|
|  Q   Q   Q   Q     S S S S S S S S S S S S S S S S    Q   Q   Q   Q
|------------------|---------------------------------|-------------------|
|------------------|---------------------------------|-------------------|
|------------------|---------------------------------|-------------------|
|------------------|---------------------------------|-------------------|
|--2---2---2---2---|---------------------------------|--2---2---2---2----|
|--0---0---0---0---|-0-0-0-0-0-0-0-0-0-0-0-0-0-0-0-0-|--0---0---0---0----|


  N.C.(E)                           E5
  Gtrs I, II
  PM----------------------------------------------|
  S S S S S S S S S S S S S S S S   Q  Q  Q  Q    Q  Q  H
|---------------------------------|-------------|------------*|
|---------------------------------|-------------|------------*|
|---------------------------------|-------------|------------*|
|---------------------------------|-------------|------------*|
|---------------------------------|-2--2--2--2--|-2----------*|
|-0-0-0-0-0-0-0-0-0-0-0-0-0-0-0-0-|-0--0--0--0--|-0----------*|


Duration Legend
---------------
W - whole; H - half; Q - quarter; E - 8th; S - 16th; T - 32nd; X - 64th; a - acciaccatura
+ - note tied to previous; . - note dotted; .. - note double dotted
Uncapitalized letters represent notes that are staccato (1/2 duration)
Irregular groupings are notated above the duration line
Duration letters will always appear directly above the note/fret number it represents the
duration for.  Duration letters with no fret number below them represent rests.  Multi-
bar rests are notated in the form Wxn, where n is the number of bars to rest for.  Low
melody durations appear below the staff

Tablature Legend
----------------
 h   - hammer-on
 p   - pull-off
 b   - bend
 pb  - pre-bend
 r   - bend release (if no number after the r, then release immediately)
 /\  - slide into or out of (from/to "nowhere")
 s   - legato slide
 S   - shift slide
  - natural harmonic
[n]  - artificial harmonic
n(n) - tapped harmonic
 ~   - vibrato
 tr  - trill
 T   - tap
 TP  - trem. picking
 PM  - palm muting
\n/  - tremolo bar dip; n = amount to dip
 \n  - tremolo bar down
 n/  - tremolo bar up
/n\  - tremolo bar inverted dip
 =   - hold bend; also acts as connecting device for hammers/pulls
 <>  - volume swell (louder/softer)
 x   - on rhythm slash represents muted slash
 o   - on rhythm slash represents single note slash

Misc Legend
-----------
 |  - bar
||  - double bar
||o - repeat start
o|| - repeat end
*|  - double bar (ending)
 :  - bar (freetime)
 $  - Segno
 &  - Coda
Tempo markers -  = BPM(8/16=s8/s16), where s8 = swing 8ths, s16 = swing 16ths
Comments