Sepultura - Mass Hypnosis Chords & Tabs

 

Mass Hypnosis Chords & Tabs

Sepultura Chords & Tabs

Version: 1 Type: Tab 0 ratings
1 star 2 stars 3 stars 4 stars 5 stars
comments

Mass Hypnosis Tab

   
Sepultura
Mass Hypnosis
Beneath The Remains
Roadrunner Records
Tabbed By Phil Silvestro

Intro (Guitar 1)
|--11111111-1-1-1-1-11111111-1-1-1-1-11111111-1-1-1-1-11111111-1-1-1-1----|
|--33333333-3-3-3-3-33333333-3-3-3-3-33333333-3-3-3-3-33333333-3-3-3-3----|
|-------------------------------------------------------------------------|
|-------------------------------------------------------------------------|
|-------------------------------------------------------------------------|
|-------------------------------------------------------------------------|
PM.........         ........         ........         ........

Intro (Guitar 2)
|--11111111-------------11111111-------------11111111-----------11111111--
|--33333333-------------33333333-------------33333333-----------33333333--
|-------------------------------------------------------------------------
|-------------------------------------------------------------------------
|----------------------------------------------------------15-------------
|-----------13-14-13-14----------13-14-14-13----------13-14--14-----------
PM.........             ........             ........           ........

-------------------|
-------------------|
-------------------|
-------------------|
-------------------|
--13-14-14-14/2----|

Riff A
|--1-XX-1-XX-1-XX-1-1-1-XX-1-XX-1-XX-1-1--|--1-XX-1-XX-1-XXXXXX-1-XX-1-XX-1--
|--3-XX-3-XX-3-XX-3-3-3-XX-3-XX-3-XX-3-3--|--3-XX-3-XX-3-XXXXXX-3-XX-3-XX-3--
|-----------------------------------------|----------------------------------
|-----------------------------------------|----------------------------------
|-----------------------------------------|----------------------------------
|-----------------------------------------|----------------------------------

--XXXXXX-1-XX-1-XX-1-XXXXXX-1-XX-1-XX-11-1--1-1----|
--XXXXXX-3-XX-3-XX-3-XXXXXX-3-XX-3-XX-33-3--3-3----|
---------------------------------------------------|
---------------------------------------------------|
---------------------------------------------------|
---------------------------------------------------|

Riff B (Verse Riff)Double Pick this and play it throughout the verse
|--4-4-1-1-3-3-1-1----|
|--6-6-3-3-5-5-3-3----|
|---------------------|
|---------------------|
|---------------------|
|---------------------|

Chorus Riff (Play 2 times and go immediatly into Riff B after the 2nd time)
|--11111111----------|
|--33333333---3-2----|
|-------------5-4----|
|--------------------|
|--------------------|
|--------------------|
PM.........

*Riff B (after the 2nd time the chorus riff is played)

*Chorus Riff (Played 4 times)(Double pick last 2)

Riff C
|--11111111-1-1-11111111-11-11-11111111-1-1-11111111-11-11----|
|--33333333-3-3-33333333-33-33-33333333-3-3-33333333-33-33----|
|-------------------------------------------------------------|
|-------------------------------------------------------------|
|-------------------------------------------------------------|
|-------------------------------------------------------------|

New Verse (Riff D)(Double Pick)
|--33333333-444-333-444-333--|--11111111-222-111-222-111----|
|--55555555-666-555-666-555--|--33333333-444-333-444-333----|
|----------------------------|------------------------------|
|----------------------------|------------------------------|
|----------------------------|------------------------------|
|----------------------------|------------------------------|
This is played in the first    Halfway throught the verse it
part of the verse               changes to this

Riff E (This is played as soon as the verse ends)
|--11111111111--------------------------|
|--33333333333-22222-333333333333333----|
|--------------44444-555555555555555----|
|---------------------------------------|
|---------------------------------------|
|---------------------------------------|

Riff F (Played 2 times)                   This is played as shown
|--1-----------------------------------|--1-1-1-1-1----|
|--3-----------------------------------|--3-3-3-3-3----|
|--------------------------------------|---------------|
|-------------------------------2-1----|---------------|
|------2-1-1-2-1-1-2-1-1-2-1-1-2-------|---------------|
|--------------------------------------|---------------|

Riff G 
|--XXXX-1-XXXX-1-3-XXXX-1-XXXX-1-0-0--XXXX-1-XXXX-1-3-XXXX-1-X-11-11----|
|--XXXX-3-XXXX-3-5-XXXX-3-XXXX-3-2-2--XXXX-3-XXXX-3-5-XXXX-3-X-33-33----|
|-----------------------------------------------------------------------|
|-----------------------------------------------------------------------|
|-----------------------------------------------------------------------|
|-----------------------------------------------------------------------|
[ Tab from: http://www.guitartabs.cc/tabs/s/sepultura/mass_hypnosis_tab.html ]
Pre Solo
|-------------------------------------------------------------------------------
|-------------------------------------------------------------------------------
|-------------------------------------------------------------------------------
|-------------------------------------------------------------------------------
|-------------------------------------------------------------------------------
|--0-1-1-3-4--4-3-3-1-1-0-0--0-1-1-3-4--4-3-3-1-1-0-0--0-1-1-3-4--4-3-3-1-1-0-0-

--------------------------------------------------------------------------------
--------------------------------------------------------------------------------
--------------------------------------------------------------------------------
--------------------------------------------------------------------------------
--------------------------4-4-3-3-1-1-1-1-0-0-0-0-0-0-0-4-4-3-3-1-1-1-1-0-0-0-0-
--0-1-1-3-4--4-3-3-1-1-0-0------------------------------------------------------

-----------------------------------------------------------------------|
-----------------------------------------------------------------------|
-----------------------------------------------------------------------|
-----------------------------------------------------------------------|
--0-0-0-4-4-3-3-1-1-1-1-0-0-0-0-0-0-0-4-4-3-3-1-1-1-1-0-0-0-0-0-0-0----|
-----------------------------------------------------------------------|

Play this after the Pre Solo 4 times (Pause in between each one)
|--111111111----|
|--333333333----|
|---------------|
|---------------|
|---------------|
|---------------|

This is played right before the bridge
|--1-1-------1-X-1-XXX-1-X-1-XXX-----1-X-1-XXX-1-X-1-XXX----|
|--3-3--3-2--3-X-3-XXX-3-X-3-XXX-3-2-3-X-3-XXX-3-X-3-XXX----|
|-------5-4----------------------5-4------------------------|
|-----------------------------------------------------------|
|-----------------------------------------------------------|
|-----------------------------------------------------------|

Bridge (Played on clean channel)
|-------4------|
|--3-----3-----|
|---5-----5----|
|----0---------|
|--------------|
|--------------|

Guitar 2 (right before solo (after last note is played go right into solo)
|-----------------------------|
|-----------------------------|
|-----------------------------|
|-----------------------------|
|--6---8-9-11-9-8-6-11-9-8----|
|-----------------------------|

Solo
|-------------------------------------------------------------------------------
|-------------------------------------------------------------------------------
|-------------------------------------------------------------------------------
|-------------------------------------------------------------------------------
|--11-9-11-9-8-9-9-9-8-11-9-8-9-9-8-11-9-8-9-9-9-8-11-9-8-9-9---22--22-21-22-22-
|-------------------------------------------------------------19--19------------

|-------------------------------------------------------------------------------
|-------------------------------------------------------------------------------
|-------------------------------------------------------------------------------
|-------------------------------------------------------------------------------
|--22-21--22-21-22-22-21--22-21-22-22-22-21--22-21-22-22------------------------
|-------19--------------19-----------------19-----------19---17-16H17-16-16-14--

|-------------------------------------------------------------------------------
|-------------------------------------------------------------------------------
|-------------------------------------------------------------------------------
|----------------------------------------------------------------15-17-17-------
|-------------------------------------------------------------------------------
|--14-16-14-16-14-17-14-17-14-16-14-17-14-16-14-19-14-16-14-17-14---------------

|----------------------------------------------------------------|
|----------------------------------------------15-15-17-18-17----|
|--15-17-18-20-18-17-17-17-18-17-15-15-17-18-17------------------|
|----------------------------------------------------------------|
|----------------------------------------------------------------|
|----------------------------------------------------------------|

*Intro (Guitar 2)

Riff H (This is played after the intro is repeated after the solo and through the verse)
|--11111111-11-111------|
|--33333333-33-333-2----|
|------------------4----|
|-----------------------|
|-----------------------|
|-----------------------|

*Chorus Riff (Played 4 times)

*Riff B

*Intro (Guitar 2)

Ending Riff
|--1-1-1-1-1----|
|--3-3-3-3-3----|
|---------------|
|---------------|
|---------------|
|---------------|


That's it. Did my best. Any questions e-mail me at Sepultura131@aol.com
Comments