Sepultura - Inner Self Chords & Tabs

 

Inner Self Chords & Tabs

Sepultura Chords & Tabs

Version: 3 Type: Tab 0 ratings
1 star 2 stars 3 stars 4 stars 5 stars
comments

Inner Self Tab

   
                                   INNER SELF
                            As recorded by Sepultura
                    (From the 1989 Album BENEATH THE REMAINS)

Words by Max Cavalera, Andreas Kisser

Music by Max Cavalera, Igor Cavalera, Andreas Kisser, Paolo Jr.


Gtr I (E A D G B E) - 'Gtr1'
Gtr II (E A D G B E) - 'Gtr2'
Gtr III (E A D G B E) - 'Gtr3'
Gtr IV (E A D G B E) - 'Gtr4'

 Intro
  Q=144
  F5E5                                  F5E5
 4/4
  Gtr II
  E E Q   H         W                   W                 W
  | |
  / /

  Gtr I                                 Gtrs I, II
      PM--------------------------|         PM--------------------------|
  E E E E E E E E   E E E E E E E E     E E E E E E E E   E E E E E E E E   3x
|-----------------|-----------------||------------------|-------------------||
|-----------------|-----------------||o-----------------|------------------o||
|-----------------|-----------------||------------------|-------------------||
|-----------------|-----------------||------------------|-------------------||
|-3-2-2-2-2-2-2-2-|-2-2-2-2-2-2-2-2-||o-3-2-2-2-2-2-2-2-|-2-2-2-2-2-2-2-2--o||
|-1-0-0-0-0-0-0-0-|-0-0-0-0-0-0-0-0-||--1-0-0-0-0-0-0-0-|-0-0-0-0-0-0-0-0---||


    F5E5                                N.C.     E5
                                                 Gtrs I, II
        PM--------------------------|            PM--| PM----------------|
    E E E E E E E E   E E E E E E E E   E  E E E E E E E   E E E E E E E E
||------------------|-----------------|------------------|------------------||
||o-----------------|-----------------|------------------|-----------------o||
||------------------|-----------------|---10-------------|------------------||
||------------------|-----------------|----3-9-----------|------------------||
||o-3-2-2-2-2-2-2-2-|-2-2-2-2-2-2-2-2-|-8----2-8-2-2-2-2-|-2-2-2-2-2-2-2-2-o||
||--1-0-0-0-0-0-0-0-|-0-0-0-0-0-0-0-0-|-1------1-0-0-0-0-|-0-0-0-0-0-0-0-0--||
                                        E  E E E     H


               FE5           F5
               Gtrs I, II
                           PM-----------
    E Q.   +H       +H     E E E E  4x
||----------------|-----------------||-|
||o---------------|----------------o||-|
||----------------|-----------------||-|
||----------------|-----------------||-|
||o-3-2----(2)----|-(2)----3-3-3-3-o||-|
||--1-0----(0)----|-(0)----1-1-1-1--||-|


    Gtrs I, II
 -----------------------------------|
    E E E E E E E E   E E E E E E E E    4x
||------------------|--------------------||
||o-----------------|-------------------o||
||------------------|--------------------||
||------------------|-3-3-3-3-3-3-3-3----||
||o-2-2-2-2-2-2-2-2-|-1-1-1-1-1-1-1-1---o||
||--0-0-0-0-0-0-0-0-|--------------------||


    E5F5E5 E5
           PM----------------------|
    E E Q  E E E E   E E E E E E E E  3x
||-----------------|------------------||
||o----------------|-----------------o||
||-----------------|------------------||
||-----------------|------------------||
||o-2-3-2--2-2-2-2-|-2-2-2-2-2-2-2-2-o||
||--0-1-0--0-0-0-0-|-0-0-0-0-0-0-0-0--||


                                       Verse
  E5F5E5 E5                             E5F5E5 E5
         PM----------------|                   PM----------------------|
  E E Q  E E E E   E E E E E E  Q       E E Q  E E E E   E E E E E E E E  4x
|----------------|------------------||-----------------|------------------||
|----------------|------------------||o----------------|-----------------o||
|----------------|------------------||-----------------|------------------||
|----------------|------------------||-----------------|------------------||
|-2-3-2--2-2-2-2-|-2-2-2-2-2--------||o-2-3-2--2-2-2-2-|-2-2-2-2-2-2-2-2-o||
|-0-1-0--0-0-0-0-|-0-0-0-0-0-0-12\--||--0-1-0--0-0-0-0-|-0-0-0-0-0-0-0-0--||


    Ab5                                                 G5
           PM----------------------|          PM----------------------|
    E E Q  E E E E   E E E E E E E E   E E Q  E E E E   E E E E E E E E
||-----------------|-----------------|----------------|-------------------||
||o----------------|-----------------|----------------|------------------o||
||-----------------|-----------------|----------------|-------------------||
||-----------------|-----------------|----------------|-------------------||
||o-6-5-6--6-6-6-6-|-6-6-6-6-6-6-6-6-|-6-5-6--6-6-6-6-|-5-5-5-5-5-5-5-5--o||
||--4-4-4--4-4-4-4-|-4-4-4-4-4-4-4-4-|-4-4-4--4-4-4-4-|-3-3-3-3-3-3-3-3---||


    $
     AbG5F5G5 F#5       AbG5F5G5 F5
     Gtr III
     E E E E  E E E E   E E E E  E E E E
     | | | |  | | | |   | | | |  | | | |
     / / / /  / / / /   / / / /  / / / /

    GGtrs I, II
     PM-------|         PM-------------|
     E E E E  E E E E   E E E E  E E E E
||--------------------|------------------|
||o-------------------|------------------|
||--------------------|------------------|
||--------------------|------------------|
||o--6-5-3-5--4-4-4-4-|-6-5-3-5--3-3-3-3-|
||---4-3-1-3--2-2-2-2-|-4-3-1-3--1-1-1-1-|


  Ab5G5F5G5 F#5       Ab5G5F5G5 F5          E5
  E  E E E  E E E E   E  E E E  E E E E     E E E E E E E E
  |  | | |  | | | |   |  | | |  | | | |     | |   |   |   |
  /  / / /  / / / /   /  / / /  / / / /     / /   /   /   /

  PM----------------------------------|
  E  E E E  E E E E   E  E E E  E E E E     E E   E E Q   Q
|-------------------|--------------------||-----------------|
|-------------------|-------------------o||-----------------|
|-------------------|--------------------||-----------------|
|-------------------|--------------------||-----------------|
|-6\-5-3-5--4-4-4-4-|-6\-5-3-5--3-3-3-3-o||-2-2---2---2---2-|
|-4\-3-1-3--2-2-2-2-|-4\-3-1-3--1-1-1-1--||-0-0---0---0---0-|


    E5              Bb5               C5              E5
       PM--------|     PM--------|       PM--------|     PM--------|
    E  S S S S S S  E  S S S S S S    E  S S S S S S  E  S S S S S S
||---------------------------------|----------------------------------||
||o--------------------------------|---------------------------------o||
||---------------------------------|----------------------------------||
||------------------3--------------|--6-------------------------------||
||o-2---------------1--1-1-1-1-1-1-|--4--4-4-4-4-4-4--2--------------o||
||--0--0-0-0-0-0-0-----------------|------------------0--0-0-0-0-0-0--||


  E5              Bb5               C5              E5
     PM--------|     PM------|         PM------|       PM--------|
  E  S S S S S S  E  S S S S S S    E  S S S S S S  E  S S S S S S
|--------------------------------|----------------------------------|
|--------------------------------|----------------------------------|
|--------------------------------|----------------------------------|
|-----------------3--------------|--6-------------------------------|
|-2---------------1--1-1-1-1-1-1-|--4--4-4-4-4-4-4--2---------------|
|-0--0-0-0-0-0-0-----------------|------------------0--0-0-0-0-0-0--|


                                                            To Coda
                                                                   &
  E5              Bb5               C5              E5
     PM--------|     PM------|         PM------|       PM--------|
  E  S S S S S S  E  S S S S S S    E  S S S S S S  E  S S S S S S
|--------------------------------|----------------------------------|
|--------------------------------|----------------------------------|
|--------------------------------|----------------------------------|
|-----------------3--------------|--6-------------------------------|
|-2---------------1--1-1-1-1-1-1-|--4--4-4-4-4-4-4--2---------------|
|-0--0-0-0-0-0-0-----------------|------------------0--0-0-0-0-0-0--|


  D5
  Gtr I
  W                                 +W
  |                                  |
  /                                  /

  Gtr II
  S S S S S S S S S S S S S S S S    S  S S S S S S S S S S S S S S S
|---------------------------------|-----------------------------------|
|---------------------------------|-----------------------------------|
|---------------------------------|-----------------------------------|
|-7p5---------7p5---------7p5-----|--7p=5---------7p5---------7p5-----|
|-----8p5-7p5-----8p5-7p5-----8p5-|-------8p5-7p5-----8p5-7p5-----8p5-|
|---------------------------------|-----------------------------------|
|
| Gtr III
| W                                 +W
|---------------------------------|-----------------------------------|
|---------------------------------|-----------------------------------|
|---------------------------------|-----------------------------------|
|-8-------------------------------|-(8)-------------------------------|
|-6-------------------------------|-(6)-------------------------------|
|---------------------------------|-----------------------------------|


  C#5                               E5
  W                                                                 +W
  |                                                                  |
  /                                                                  /

  S S S S S S S S S S S S S S S S    S  S S S S S S S S S S S S S S  S
|---------------------------------|--------------------------------------|
|---------------------------------|--------------------------------------|
|---------------------------------|--------------------------------------|
|-6p4---------6p4---------6p4-----|--6p=4---------6p4---------6p4--------|
|-----8p4-6p4-----8p4-6p4-----8p4-|-------8p4-6p4-----8p4-6p4-----8p=4---|
|---------------------------------|--------------------------------------|
|
| W                                 +W
|---------------------------------|--------------------------------------|
|---------------------------------|--------------------------------------|
|---------------------------------|--------------------------------------|
|-7-------------------------------|-(7)----------------------------------|
|-5-------------------------------|-(5)----------------------------------|
|---------------------------------|--------------------------------------|


    Gtrs I, II
           PM----------------------|
    E E Q  E E E E   E E E E E E E E  4x
||-----------------|------------------||
||o----------------|-----------------o||
||-----------------|------------------||
||-----------------|------------------||
||o-2-3-2--2-2-2-2-|-2-2-2-2-2-2-2-2-o||
||--0-1-0--0-0-0-0-|-0-0-0-0-0-0-0-0--||


           PM--------------------------|      PM----------------------|
    E E Q  E E E E   E E E E E E E E   E E Q  E E E E   E E E E E E E E
||-----------------|-----------------|----------------|------------------||
||o----------------|-----------------|----------------|-----------------o||
||-----------------|-----------------|----------------|------------------||
||-----------------|-----------------|----------------|------------------||
||o-6-5-6--6-6-6-6-|-6-6-6-6-6-6-6-6-|-6-5-6--6-6-6-6-|-5-5-5-5-5-5-5-5-o||
||--4-4-4--4-4-4-4-|-4-4-4-4-4-4-4-4-|-4-4-4--4-4-4-4-|-3-3-3-3-3-3-3-3--||


    Ab5                            Ab5           B5     C5
    Gtr II
      W       +W                   W             H       H
      |        |                   |             |       |
      /        /                   /             /       /

    Gtr IV
    E E H.     E  E Q  E E E E     E E E +H  E   E E Q   E E E E
||----------|-------------------||-------------|-----------------|
||o---------|------------------o||-------------|-----------------|
||----------|----------0--------||-------------|-----0-------0---|
||------0---|-------0----0---0--||-----0-(0)---|---4-------5-----|
||o---6-----|-----6--------6---o||---6---------|-2-------3-------|
||--4-------|--4----------------||-4-----------|-----------------|
|
|   Gtr I
|   W         +W                   W             H       H
||----------|-------------------||-------------|-----------------|
||o---------|------------------o||-------------|-----------------|
||----------|-------------------||-------------|-----------------|
||----------|-------------------||-------------|-----------------|
||o---------|------------------o||-6-----------|-9------10-------|
||--4-------|-(4)---------------||-4-----------|-7-------8-------|


  Ab5              B5        C5          Ab5
  W                W                     E   E E E E  E  E E
  |                |                     |   | | | |  |  | |
  /                /                     /   / / / /  /  / /

                                         PM----------|
  E  E  E  +H  E   E  E  Q    E  E  Q    E   E   Q   +H
|----------------|---------------------|---------------------|
|----------------|---------------------|---------------------|
|----------------|-------0----------0--|---------------------|
|-------0--(0)---|----4----------5-----|---------0---(0)-----|
|----6-----------|-2----------3--------|-----6---------------|
|-4--------------|---------------------|-4-------------------|
|
|                                        Gtr II
| W                H          H          E E E E E E  E  E
|----------------|---------------------|---------------------|
|----------------|---------------------|---------------------|
|----------------|---------------------|---------------------|
|----------------|---------------------|---------------------|
|-6--------------|-9---------10--------|-6-6-6-6-6-6--6--6---|
|-4--------------|-7----------8--------|-4-4-4-4-4-4--4--4---|


  B5      C5            Ab5                 B5
  E E E E  E  E  E  E   E E E E  H          E E E E  H
  | | | |  |  |  |  |   | | | |             | | | |
  / / / /  /  /  /  /   / / / /             / / / /

  PM------------|       PM--------------------------------|
  E E Q    E  E  E  E   E E Q   +H          E E Q    E  E  Q
|---------------------|-------------------|-----------------------|
|---------------------|-------------------|-----------------------|
|-----0----------0----|-------------------|-----0----------0------|
|---4---------5-------|-----0---(0)-------|---4---------5---------|
|-2--------3----------|---6---------------|-2--------3------------|
|---------------------|-4-----------------|-----------------------|
|
| E E E E  E  E  E  E   E E E E  E  E E E   E E E E  E  E  E  E
|---------------------|-------------------|-----------------------|
|---------------------|-------------------|-----------------------|
|---------------------|-------------------|-----------------------|
|---------------------|-------------------|-----------------------|
|-9-9-9-9-10-10-10-10-|-6-6-6-6--6--6-6-6-|-9-9-9-9-10-10-10-10---|
|-7-7-7-7--8--8--8--8-|-4-4-4-4--4--4-4-4-|-7-7-7-7--8--8--8--8---|


                  Q=240
  E5                E
  Gtr III
  W          +Q     E E E E E E   E E E E E E E E
  |           |     | | | | | |   | | | | | | | |
  /           /     / / / / / /   / / / / / / / /

  Gtrs I, II
                    PM--------------------------|
  W          +Q     E E E E E E   E E E E E E E E
|----------|--------------------|-----------------|
|----------|--------------------|-----------------|
|----------|--------------------|-----------------|
|----------|--------------------|-----------------|
|-2--------|-(2)----------------|-----------------|
|-0--------|-(0)----0-0-0-0-0-0-|-0-0-0-0-0-0-0-0-|


    G5 F5 N.C.          G5 F5 N.C. Ab5
          PM--------|         PM|
    E  E  E E E E E E   E  E  E E  Q  Q  4x
||--------------------|------------------||
||o-------------------|-----------------o||
||--------------------|------------------||
||--------------------|------------------||
||o-5s=3--------------|-5s=3-------6--6-o||
||--3s=1--0-0-0-0-0-0-|-3s=1--0-0--4--4--||


    Gtr III
    E E E E  E E E E   E E E E  E E E E
    | | | |  | | | |   | | | |  | | | |
    / / / /  / / / /   / / / /  / / / /

    Gtrs I, II
    PM--------------------------------|
    E E E E  E E E E   E E E E  E E E E  4x
||-------------------|-------------------||
||o------------------|------------------o||
||-------------------|-------------------||
||-------------------|-3-3-3-3--3-3-3-3--||
||o-2-2-2-2--2-2-2-2-|-1-1-1-1--1-1-1-1-o||
||--0-0-0-0--0-0-0-0-|-------------------||


        PM--------|       PM|
    E E E E E E E E   E E E E Q  Q  4x
||------------------|---------------||
||o-----------------|--------------o||
||------------------|---------------||
||------------------|---------------||
||o-5s3-------------|-5s3-----6--6-o||
||--3s1-0-0-0-0-0-0-|-3s1-0-0-4--4--||


     E5                 F5
    Gtr III
     E E E E  E E E E   E E E E  E E E E
     | | | |  | | | |   | | | |  | | | |
     / / / /  / / / /   / / / /  / / / /

    Gtrs I, II
     PM--------------------------------|
     E E E E  E E E E   E E E E  E E E E  4x
||--------------------|-------------------||
||o-------------------|------------------o||
||--------------------|-------------------||
||--------------------|-3-3-3-3--3-3-3-3--||
||o--2-2-2-2--2-2-2-2-|-1-1-1-1--1-1-1-1-o||
||---0-0-0-0--0-0-0-0-|-------------------||


          PM|    PM|        PM|
    E E E E E E  E E    E E E E Q  Q
||-------------------|----------------||
||o------------------|---------------o||
||-------------------|----------------||
||-------------------|----------------||
||o---5s3-----2------|--5s3-----6--6-o||
||----3s1-0-0-0--0-0-|--3s1-0-0-4--4--||

[ Tab from: http://www.guitartabs.cc/tabs/s/sepultura/inner_self_tab_ver_3.html ]
  E  E E E E  E E   E      E  E E  E  Q Q
|---------------------|--------------12----|
|---------------------|---11---------------|
|----------9----------|------12-9----------|
|-8----------11-8-----|-----------11----0--|
|---10-7-----------10-|--------------------|
|--------9------------|--------------------|
|
| Gtr II
|      PM|    PM|             PM|
| E  E E E Q  E E       E  E  E E  Q    Q
|---------------------|--------------------|
|---------------------|--------------------|
|---------------------|--------------------|
|---------------------|--------------------|
|-5s=3-----2----------|-5s=3-------6----6--|
|-3s=1-0-0-0--0-0-----|-3s=1--0-0--4----4--|


                                  ~~
   E  E  E  E  E  S  S  E  E      H       E  Q.
|-18-15----18-15-18p15----18-|---21--------------|
|-------16-------------16----|---20--------------|
|----------------------------|------------x-12/--|
|----------------------------|-------------------|
|----------------------------|-------------------|
|----------------------------|-------------------|
|
|        PM|      PM|               PM|
|  E  E  E  E  Q  E  E         E  E E E Q    Q
|----------------------------|-------------------|
|----------------------------|-------------------|
|----------------------------|-------------------|
|----------------------------|-------------------|
|--5s=3--------2-------------|-5s=3-----6----6---|
|--3s=1--0--0--0--0--0-------|-3s=1-0-0-4----4---|


  F#5                    F#b5
  Gtr I
   E E E E  E  E  E  E    E  E  E  E  E   E  E E
   | | | |  |  |  |  |    |  |  |  |  |   |  | |
   / / / /  /  /  /  /    /  /  /  /  /   /  / /

   ~~                                     ~~~~
   H        E  E  E  E    S  S  E  E  E  +Q.      S  S
|----------20----19----|-17----------------------------|
|-19----------19----19-|----19-19-17----------------17-|
|----------------------|-------------20-(20)-----20----|
|----------------------|-------------------------------|
|----------------------|-------------------------------|
|----------------------|-------------------------------|
|
|  PM---------------------------------------------------
|  E E E E  E  E  E  E    E  E  E  E  E   E  E E
|----------------------|-------------------------------|
|----------------------|-------------------------------|
|----------------------|--3--3--3--3--3---3--3-3-------|
|----------------------|--4--4--4--4--4---4--4-4-------|
|--4-4-4-4--4--4--4--4-|--4--4--4--4--4---4--4-4-------|
|--2-2-2-2--2--2--2--2-|--2--2--2--2--2---2--2-2-------|


   E  E  E  E E  E  E  E
   |  |  |  | |  |  |  |
   /  /  /  / /  /  /  /

         |---3---|  |----3----|
   E  E  E  E    E  E  E  S   S  S  S  E
|-----------------------------------------|
|-19-17----17---19-17----17--19p17--------|
|-------20------------20-----------20-17--|
|-----------------------------------------|
|-----------------------------------------|
|-----------------------------------------|
|
|------------------------|
|  E  E  E  E E  E     E  E
|-----------------------------------------|
|-----------------------------------------|
|-----------------------------------------|
|-----------------------------------------|
|--4--4--4--4-4--4-----4--4---------------|
|--2--2--2--2-2--2-----2--2---------------|


  Gtr I
   E     E      E  E   E   E E  E    E    E     E    E     E    E     E    E
   |     |      |  |   |   | |  |    |    |     |    |     |    |     |    |
   /     /      /  /   /   / /  /    /    /     /    /     /    /     /    /

                                     |---3---|  |---3---|  |---3---|  |---3---|
   S  S  S  S  +Q     +Q     Q       E  E    E  E  E    E  E  E    E  E  E    E
|---------------------------------|-11h15p==11------------11h14p==11------------|
|---------------------------------|------------13p10h==13------------13p10h==13-|
|-16h17----------------------7/---|---------------------------------------------|
|-------19-19-(19)---(19)\--------|---------------------------------------------|
|---------------------------------|---------------------------------------------|
|---------------------------------|---------------------------------------------|
|
|  PM----------------------------------------------------------------------------
|  E     E      E  E   E   E E  E    E    E     E    E     E    E     E    E
|---------------------------------|---------------------------------------------|
|---------------------------------|---------------------------------------------|
|--3-----3------3--3---3---3-3--3-|---------------------------------------------|
|--4-----4------4--4---4---4-4--4-|---------------------------------------------|
|--4-----4------4--4---4---4-4--4-|--4----4-----4----4-----4----4-----4----4----|
|--2-----2------2--2---2---2-2--2-|--2----2-----2----2-----2----2-----2----2----|


   E    E     E    E     E     E    E     E
   |    |     |    |     |     |    |     |
   /    /     /    /     /     /    /     /

   |---3---|  |---3---|  |--3--|  |---3---|
   E  E    E  E  E    E  E  E  E  E    E  E
|-10h14p==10------------10h14p10-------------|
|------------13p10h==13----------13p==10h13--|
|--------------------------------------------|
|--------------------------------------------|
|--------------------------------------------|
|--------------------------------------------|
|
|----------------------------------------|
|  E    E     E    E     E     E    E     E
|--------------------------------------------|
|--------------------------------------------|
|--3----3-----3----3-----3-----3----3-----3--|
|--4----4-----4----4-----4-----4----4-----4--|
|--4----4-----4----4-----4-----4----4-----4--|
|--2----2-----2----2-----2-----2----2-----2--|


  Gtr I
   E     E     E     E        E  E     E     E        E  E E E  E  E E E
   |     |     |     |        |  |     |     |        |  | | |  |  | | |
   /     /     /     /        /  /     /     /        /  / / /  /  / / /

                                                      ~~~~
                     |--3--|
   S  S  S  S  S  S  S  S  S  E  S  S  S  S  S  S     H         H
|-10h14p10----------------10-15-11----------20----|-(20)-----------------|
|----------13p10h13-10h13----------13-16s19----19-|-(19)-------19\-------|
|-------------------------------------------------|----------------------|
|-------------------------------------------------|----------------------|
|-------------------------------------------------|----------------------|
|-------------------------------------------------|----------------------|
|
|  E     E     E     E        E  E     E     E        E  E E E  E  E E E
|-------------------------------------------------|----------------------|
|-------------------------------------------------|----------------------|
|-------------------------------------------------|---3--3-3-3--3--3-3-3-|
|-------------------------------------------------|---4--4-4-4--4--4-4-4-|
|--4-----4-----4-----4--------4--4-----4-----4----|---4--4-4-4--4--4-4-4-|
|--2-----2-----2-----2--------2--2-----2-----2----|---2--2-2-2--2--2-2-2-|


    Q=120
       C5
       W
       |
       /

    Gtr III
     T              T              T              T
     |-----7-----|  |-----7-----|  |-----7-----|  |-----7-----|
     S S S S S S S  S S S S S S S  S S S S S S S  S S S S S S S
||--12p8p7p5p0h5h7-12p8p7p5p0h5h7-12p8p7p5p0h5h7-12p8p7p5p0h5h7--|
||o--------------------------------------------------------------|
||---------------------------------------------------------------|
||---------------------------------------------------------------|
||o--------------------------------------------------------------|
||---------------------------------------------------------------|
|
|      Gtrs I, II
|      W
||---------------------------------------------------------------|
||o--------------------------------------------------------------|
||---------------------------------------------------------------|
||---------------------------------------------------------------|
||o----5---------------------------------------------------------|
||-----3---------------------------------------------------------|


  B5
   W
   |
   /

   T              T              T              T
   |-----7-----|  |-----7-----|  |-----7-----|  |-----7-----|
   S S S S S S S  S S S S S S S  S S S S S S S  S S S S S S S
|-13p8p7p5p0h5h7-13p8p7p5p0h5h7-13p8p7p5p0h5h7-13p8p7p5p0h5h7-|
|-------------------------------------------------------------|
|-------------------------------------------------------------|
|-------------------------------------------------------------|
|-------------------------------------------------------------|
|-------------------------------------------------------------|
|
|  W
|-------------------------------------------------------------|
|-------------------------------------------------------------|
|-------------------------------------------------------------|
|--4----------------------------------------------------------|
|--2----------------------------------------------------------|
|-------------------------------------------------------------|


     E5
     W
     |
     /

   T              T              T              T
   |-----7-----|  |-----7-----|  |-----7-----|  |-----7-----|
   S S S S S S S  S S S S S S S  S S S S S S S  S S S S S S S
|---------------------------------------------------------------|
|-12p8p7p5p0h5h7-12p8p7p5p0h5h7-12p8p7p5p0h5h7-12p8p7p5p0h5h7---|
|---------------------------------------------------------------|
|---------------------------------------------------------------|
|---------------------------------------------------------------|
|---------------------------------------------------------------|
|
|    W
|---------------------------------------------------------------|
|---------------------------------------------------------------|
|---------------------------------------------------------------|
|---------------------------------------------------------------|
|----2----------------------------------------------------------|
|----0----------------------------------------------------------|


  1.
     Ab5
     W
     |
     /

   T              T              T              T
   |-----7-----|  |-----7-----|  |-----7-----|  |-----7-----|
   S S S S S S S  S S S S S S S  S S S S S S S  S S S S S S S
|--------------------------------------------------------------||
|-11p8p7p5p0h5h7-11p8p7p5p0h5h7-11p8p7p5p0h5h7-11p8p7p5p0h5h7-o||
|--------------------------------------------------------------||
|--------------------------------------------------------------||
|-------------------------------------------------------------o||
|--------------------------------------------------------------||
|
|    W
|--------------------------------------------------------------||
|-------------------------------------------------------------o||
|--------------------------------------------------------------||
|----3---------------------------------------------------------||
|----1--------------------------------------------------------o||
|--------------------------------------------------------------||


  2.
  Bb5
   W
   |
   /

   T              T              T              T
   |-----7-----|  |-----7-----|  |-----7-----|  |-----7-----|
   S S S S S S S  S S S S S S S  S S S S S S S  S S S S S S S
|-------------------------------------------------------------||
|-11p8p7p5p0h5h7-11p8p7p5p0h5h7-11p8p7p5p0h5h7-11p8p7p5p0h5h7-||
|-------------------------------------------------------------||
|-------------------------------------------------------------||
|-------------------------------------------------------------||
|-------------------------------------------------------------||
|
|  W
|-------------------------------------------------------------||
|-------------------------------------------------------------||
|-------------------------------------------------------------||
|--3----------------------------------------------------------||
|--1----------------------------------------------------------||
|-------------------------------------------------------------||


  Q=240
   E5
   W                 +W
   |                  |
   /                  /

       W                    W
|------------------|------------------|
|------------------|------------------|
|------------------|------------------|
|------------------|------------------|
|------------------|------------------|
|------------------|------------------|
|
|  Gtr I
|  PM-----------------------|
|  E E E E E E E E    E E E E Q  Q
|------------------|------------------|
|------------------|------------------|
|------------------|------------------|
|------------------|----------3--3----|
|------------------|----------1--1----|
|--0-0-0-0-0-0-0-0-|--0-0-0-0---------|


  +W                 +W               +W
   |                  |                |
   /                  /                /

   PM-----------------------|          PM------------|
   E E E E E E E E    E E E E Q  Q     E E E E E E E E
|------------------|----------------|------------------|
|------------------|----------------|------------------|
|------------------|----------------|------------------|
|------------------|----------3--3--|------------------|
|------------------|----------1--1--|------------------|
|--0-0-0-0-0-0-0-0-|--0-0-0-0-------|--0-0-0-0-0-0-0-0-|


                   N.C.                      Bb5
                   Gtr III
  +W               W                 W
   |
   /

                   Gtrs I, II
   PM----|         PM----------------------|
   E E E E Q  Q    E E E E E E E E   E E E E Q  Q
|----------------|-----------------|--------------|
|----------------|-----------------|--------------|
|----------------|-----------------|--------------|
|----------3--3--|-----------------|---------3--3-|
|----------1--1--|-----------------|---------1--1-|
|--0-0-0-0-------|-0-0-0-0-0-0-0-0-|-0-0-0-0------|


                     1.,2.,3.          4.
    B5N.C.                    Bb5              Bb5   B5    E5
      PM--------------------|          PM----|
    E E E E E E E E   E E E E Q  Q     E E E E Q Q   E E Q E E  Q
||------------------|---------------||-------------|--------------|
||o-----------------|--------------o||-------------|--------------|
||------------------|---------------||-------------|--------------|
||--4---------------|---------3--3--||---------3-3-|-4------------|
||o-2---------------|---------1--1-o||---------1-1-|-2-----2-2----|
||----0-0-0-0-0-0-0-|-0-0-0-0-------||-0-0-0-0-----|-------0-0----|


  PM----------------------|             PM--------------------|
  E E E E E E E E   E E E E Q  Q      E E E E E E E E   E E E E Q  Q   3x
|-----------------|---------------||------------------|----------------||
|-----------------|---------------||o-----------------|---------------o||
|-----------------|---------------||------------------|----------------||
|-----------------|---------3--3--||--4---------------|---------3--3---||
|-----------------|---------1--1--||o-2---------------|---------1--1--o||
|-0-0-0-0-0-0-0-0-|-0-0-0-0-------||----0-0-0-0-0-0-0-|-0-0-0-0--------||


    S S S S S S S S S S S S S S S S   S S S S S S S S S S S S S S S S
||----------------------------------|----------------------------------|
||o---------------------------------|----------------------------------|
||----------------------------------|----------------------------------|
||----------------------------------|----------------------------------|
||o-----------------------------3-3-|-----------------------------3-3--|
||--2-2-2-2-2-2-2-2-5-5-4-4-2-2-----|-2-2-2-2-2-2-2-2-5-5-4-4-2-2------|


                                   1.,2.,3.
  S S S S S S S S S S S S S S S S   S S S S S S S S S S S S S S S S
|---------------------------------|----------------------------------||
|---------------------------------|---------------------------------o||
|---------------------------------|----------------------------------||
|---------------------------------|----------------------------------||
|-----------------------------3-3-|---------------------------------o||
|-2-2-2-2-2-2-2-2-5-5-4-4-2-2-----|-1-1-1-1-1-1-1-1-1-1-1-1-1-1-1-1--||


 4.
                         D.S. al Coda
                                     $
   S S S S S S S S S S S S S S S S
|-------------------------------------||
|-------------------------------------||
|-------------------------------------||
|-------------------------------------||
|-------------------------------------||
|--1-1-1-1-1-1-1-1-1-1-1-1-1-1-1-1----||


        Q=144
  &
         E5F#5     E5A5A#5 B5      E5F#5     E5A5A#5 B5
         PM|       PM----------------|       PM----------|
  W      E S S +E  E E S S S S E   E S S +E  E E S S S S E
|---||---------------------------|-------------------------|
|---||o--------------------------|-------------------------|
|---||---------------------------|-------------------------|
|---||---------------------------|-------------------------|
|---||o--2-4-4-(4)-2-7-8-8-9-9-9-|-2-4-4-(4)-2-7-8-8-9-9-9-|
|---||-----2-2-(2)-0-5-6-6-7-7-7-|-0-2-2-(2)-0-5-6-6-7-7-7-|


  E5F#5     E5A5A#5 B5
  PM|       PM----------|
  E S S +E  E E S S S S E   E S S S S S S E S S S S S S
|-------------------------|-------------------------------||
|-------------------------|------------------------------o||
|-------------------------|-------------------------------||
|-------------------------|-------------------------------||
|-2-4-4-(4)-2-7-8-8-9-9-9-|-2-------------2--------------o||
|-0-2-2-(2)-0-5-6-6-7-7-7-|-0-0-0-0-0-0-0-0-0-0-0-0-0-0---||


  E S S S S S S E S S S S S S   E  Q  E +E   Q  E   E E Q  H
|-----------------------------|-------------------|-----------*|
|-----------------------------|-------------------|-----------*|
|-----------------------------|-------------------|-----------*|
|-----------------------------|-------------------|-----------*|
|-2-------------2-------------|-2--2--2-(2)--2--2-|-2---------*|
|-0-0-0-0-0-0-0-0-0-0-0-0-0-0-|-0--0--0-(0)--0--0-|-0---------*|


Duration Legend
---------------
W - whole; H - half; Q - quarter; E - 8th; S - 16th; T - 32nd; X - 64th; a - acciaccatura
+ - note tied to previous; . - note dotted; .. - note double dotted
Uncapitalized letters represent notes that are staccato (1/2 duration)
Irregular groupings are notated above the duration line
Duration letters will always appear directly above the note/fret number it represents the
duration for.  Duration letters with no fret number below them represent rests.  Multi-
bar rests are notated in the form Wxn, where n is the number of bars to rest for.  Low
melody durations appear below the staff

Tablature Legend
----------------
 h   - hammer-on
 p   - pull-off
 b   - bend
 pb  - pre-bend
 r   - bend release (if no number after the r, then release immediately)
 /\  - slide into or out of (from/to "nowhere")
 s   - legato slide
 S   - shift slide
  - natural harmonic
[n]  - artificial harmonic
n(n) - tapped harmonic
 ~   - vibrato
 tr  - trill
 T   - tap
 TP  - trem. picking
 PM  - palm muting
\n/  - tremolo bar dip; n = amount to dip
 \n  - tremolo bar down
 n/  - tremolo bar up
/n\  - tremolo bar inverted dip
 =   - hold bend; also acts as connecting device for hammers/pulls
 <>  - volume swell (louder/softer)
 x   - on rhythm slash represents muted slash
 o   - on rhythm slash represents single note slash

Misc Legend
-----------
 |  - bar
||  - double bar
||o - repeat start
o|| - repeat end
*|  - double bar (ending)
 :  - bar (freetime)
 $  - Segno
 &  - Coda
Tempo markers -  = BPM(8/16=s8/s16), where s8 = swing 8ths, s16 = swing 16ths


This song rocks and awesome to beat people up to
Comments