Sepultura - Inhuman Nature Chords & Tabs

 

Inhuman Nature Chords & Tabs

Sepultura Chords & Tabs

Version: 2 Type: Tab 0 ratings
1 star 2 stars 3 stars 4 stars 5 stars
comments

Inhuman Nature Tab

   
	Sepultura: Inhuman Nature

	RHYTHM 1

	e:-------------------------------|-------------------------------|
	B:-------------------------------|-------------------------------|
	G:-------------------------------|-------------------------------|
	D:-11-\-8--8-8---8---------------|-------------------------------|
	A:-11-\-8--8-8---8---------------|-------------------------------|
	E:--9-\-6--6-6---6---------------|-------------------------------|
	|  Really fast slide : sounds like "ziuung-duhduh-daa"!
	|
	|
	G:-------------------------------|-------------------------------|
	D:-------------------------------|-------------------------------|
	A:-------------------------------|-------------------------------|
	E:--6-----------------------9--5-|--6--------------------9-9-5-5-|


	RHYTHM 1/b

	e:-------------------------------|-------------------------------|
	B:-------------------------------|-------------------------------|
	G:-------------------------------|-------------------------------|
	D:-11-\-8--8-8---8---------------|-------------------------------|
	A:-11-\-8--8-8---8---------------|-------------------------------|
	E:--9-\-6--6-6---6---------------|--------------------X-////////-|
	|                                                    pick slide!
	|
	|
	G:-------------------------------|-------------------------------|
	D:-------------------------------|-------------------------------|
	A:-------------------------------|-------------------------------|
	E:--6-----------------------9--5-|--6--------------------9-9-5-5-|


	RHYTHM 2
[ Tab from: http://www.guitartabs.cc/tabs/s/sepultura/inhuman_nature_tab_ver_2.html ]
	e:-------------------------------|-------------------------------|
	B:-------------------------------|-------------------------------|
	G:-------------------------------|-------------------------------|
	D:--8----------------------11--7-|--8-------------------11*----7-|
	A:--8----------------------11--7-|--8-------------------11*----7-|
	E:--6-----------------------9--5-|--6--------------------9*----5-|
	|                                                  *Bend up 1/4 step
	|                                                   then back to orig.
	|                                                   note!
	G:-------------------------------|-------------------------------|
	D:-------------------------------|-------------------------------|
	A:-------------------------------|-------------------------------|
	E:--6-----------------------9--5-|--6--------------------9-9-5-5-|


	RHITHM 3

	e:-------------------------------|-------------------------------|
	B:-------------------------------|-------------------------------|
	G:-------11-11-------------------|-------------------------------|
	D:-10-10-11-11-------------------|-10-10---13--10-/-13-10-/-13---|
	A:-10-10--9--9-------------------|-10-10---13--10-/-13-10-/-13---|
	E:--8--8-------------------------|--8--8---11---8-/-11--8-/-11---|
	|						Slide   Slide
	|
	|
	G:-------------------------------|-------------------------------|
	D:-------------------------------|-------------------------------|
	A:--------9--9-------------------|-------------------------------|
	E:--8--8-------------------------|--8--8---11---8-/-11---8-/-11--|


	....
Comments