Sepultura - Crucifixtion Chords & Tabs

 

Crucifixtion Chords & Tabs

Sepultura Chords & Tabs

Version: 1 Type: Tab 0 ratings
1 star 2 stars 3 stars 4 stars 5 stars
comments

Crucifixtion Tab

   
================================================================================
         Title : Crucifixion
        Artist : Sepultura
         Album : Morbid Visions
Transcribed by : By DimeBolt (dime_bolt@email.com)
================================================================================

Legend
------

 h  = hammer-on
 p  = pull-off
 b  = bend
 r  = bend release
 /  = slide up/down
<5> = natural harmonic
[5] = artifical harmonic
 ~  = vibrato
 tr = trill

--------------------------------------------------------------------------------

This is just the riffs. Hard as to tab out in some parts as the guitars aren't 
tuned properly on this album. So there would be some mistakes. Lots of 
imporvisation in this song and so just have fun with it.


     Guitar 1 intro
E---|-----------------|-------|-----------------------|------------|------------
B---|-----------------|-------|-----------------------|------------|------------
G---|-9----9-9-9--10--|-9-----|-10----10-10-10--10-10-|-10---------|-9----9-9-9-
D-x\|-9----9-9-9--10--|-9-----|-10----10-10-10--10-10-|-10---------|-9----9-9-9-
A-x\|-7----7-7-7---8--|-7-----|--8-----8--8--8---8--8-|--8----/x\--|-7----7-7-7-
E-x\|-----------------|-------|-----------------------|------------|------------




                                                  Guitar 2 intro
E|------|---------|-------|----13--------|------||-----------------------------
B|------|---------|-------|--------------|------||-----------------------------
G|--10--|-9-------|-------|--------------|-9----||-----------------------------
D|--10--|-9-------|-------|--------------|-9----||-----------------------------
A|---8--|-7----7--|-8~----|-8------8--8--|-7----||-----------------------------
E|------|---------|-------|--------------|------||-0-0-0-0-0-0-0-0-0-0-0-0-0-0-





E|----|--------------------------------|--------------------------------|-------
B|----|--------------------------------|--------------------------------|-------
G|----|--------------------------------|--------------------------------|-------
D|----|--------------------------------|--------------------------------|-------
A|-3--|-------------------------5\2----|-----------------------------4--|-------
E|-1--|-0-0-0-0-0-0-0-0-0-0-0-0-----2--|-1-1-1-1-1-1-1-1-1-1-1-1-1-1-2--|-1-1-1-




                              Verse (FAST)
E|--------------------------||---------------------------------|---------------
B|--------------------------||---------------------------------|---------------
G|--------------------------||---------------------------------|---------------
D|--------------------------||---------------------------------|---------------
A|-------------------5\2----||---------------------------------|---------------
E|-1-1-1-1-1-1-1-1-1-----2--||-0-0-0-0-0-0-0-0-0-0-0-0-0-0-0-0-|-0-0-0-0-0-0-0-





E|--------------|---------------------------------|-----------------------||---
B|--------------|---------------------------------|-----------------------||---
G|--------------|---------------------------------|-----------------------||---
D|--------------|---------------------------------|-----------------7--9--||---
A|-----------3--|---------------------------------|-----------------5--7--||---
E|-0-0-0-0-0-1--|-0-0-0-0-0-0-0-0-0-0-0-0-0-0-0-0-|-0-0-0-0-0-0-0-0-------||-2-




  Chorus
E|-------------------------------|---------------------------------|-----------
B|-------------------------------|---------------------------------|-----------
G|-------------------------------|---------------------------------|-----------
D|-------------------------------|---------------------------------|-----------
A|-------------------------------|---------------------------------|-----------
E|-2-2-2-2-2-2-2-2-2-2-2-2-2-2-2-|-6-6-6-6-6-6-6-6-6-6-6-6-6-6-6-6-|-5-5-5-5-5-




                                                             Slower
E|-----------------------|---------------------------------||------------------
B|-----------------------|---------------------------------||------------------
G|-----------------------|---------------------------------||------------------
D|-----------------------|---------------------------------||------------------
A|-----------------------|---------------------------------||-2--2--2--2--2--2-
E|-5-5-5-5-5-5-5-5-5-5-5-|-6-6-6-6-6-6-6-6-6-6-6-6-6-6-6-6-||-0--0--0--0--0--0-



[ Tab from: http://www.guitartabs.cc/tabs/s/sepultura/crucifixtion_tab.html ]
                                                                Shredder
E|--------|-------------------------|------------|------------||---------------
B|--------|-------------------------|------------|------------||---------------
G|--------|-------------------------|------------|------------||---------------
D|--------|-------------------------|-9----10----|-9----10----||---------------
A|--2--2--|-2--2--2--2--2--2--2--2--|-7-----8----|-7-----8----||---------------
E|--0--0--|-0--0--0--0--0--0--0--0--|------------|------------||-0-0-0-0-0-0-0-





E|-------------------|---------------------------------|-----------------------
B|-------------------|---------------------------------|-----------------------
G|-------------------|---------------------------------|-----------------------
D|-------------------|---------------------------------|-----------------------
A|-------------------|---------------------------------|-1-1-1-1-1-1-1-1-1-1-1-
E|-0-0-0-0-0-0-0-0-0-|-0-0-0-0-0-0-0-0-0-0-0-0-0-0-0-0-|-----------------------





E|-----------|------------------------||------------------------|--------------
B|-----------|------------------------||------------------------|--------------
G|-----------|------------------------||------------------------|--------------
D|-----------|------------------------||--------------------3---|--------------
A|-1-1-1-1-1-|---------------------1--||--------------------1---|--------------
E|-----------|-1-1-1-1-1-1-1-1--2-----||-0--0-0-0--0--0--0------|-0--0-0-0--0--




                                                                Solo
E|-----------|------------------------|-----------------------||---------------
B|-----------|------------------------|-----------------------||---------------
G|-----------|------------------------|-----------------------||---------------
D|-----------|--------------------3---|-------------------3---||---------------
A|-------3---|--------------------1---|--------3----------1---||---------------
E|-0--0--1---|-0--0-0-0--0--0--0------|-0--0-0-1---0--0-0-----||-0-0-0-0-0-0-0-





E|---------------|-----------------------------|-----------------------------|-
B|---------------|-----------------------------|-----------------------------|-
G|---------------|-----------------------------|-----------------------------|-
D|-----------3---|-----------------------------|-------------------------3---|-
A|-----------1---|-------------------------3---|-------------------------1---|-
E|-0-0-0-0-0-----|-0-0-0-0-0-0-0-0-0-0-0-0-1---|-0-0-0-0-0-0-0-0-0-0-0-0-----|-





E|-------------------------||---------------------------------|-----------------
B|-------------------------||---------------------------------|-----------------
G|-------------------------||---------------------------------|-----------------
D|---------------------3---||---------------------------------|-----------------
A|---------3-----------1---||-0-0-0-0-0-0-0-0-0-0-0-0-0-0-0-0-|-0-0-0-0-0-0-0-0-
E|-0-0-0-0-1---0-0-0-0-----||---------------------------------|-----------------




                  After this has Garbage and vocals          
E|--------------||------|-----|------|---------||--------------------------------
B|--------------||------|-----|------|---------||--------------------------------
G|--------------||------|-----|------|---------||--------------------------------
D|-----3--3--3--||------|-----|------|-----5---||-7-7-7-7-7-7-8-8-7-7-7-7-7-7-10-
A|-0-0-1--1--1--||-2----|-----|-6----|-5---3---||--------------------------------
E|--------------||-0----|-----|-4----|-3-------||--------------------------------




                                          End Part
E|----|---------------------------------||---------------------------------|---
B|----|---------------------------------||---------------------------------|---
G|----|---------------------------------||---------------------------------|---
D|-10-|-7-7-7-7-7-7-8-8-6-6-6-6-6-6-6-6-||---------------------------------|---
A|----|---------------------------------||-7-7-7-7-7-7-7-7-7-7-7-7-7-7-7-7-|-8-
E|----|---------------------------------||---------------------------------|---




                                  Garbage
E|-------------------------------|-------||-----*|-
B|-------------------------------|-------||-----*|-
G|-------------------------------|-------||-----*|-
D|-------------------------------|-------||-9\--*|-
A|-8-8-8-8-8-8-8-8-8-8-8-8-8-8-8-|-8-----||-7\--*|-
E|-------------------------------|-------||-----*|-
Comments