Sepultura - Biotech Is Godzilla Chords & Tabs

 

Biotech Is Godzilla Chords & Tabs

Sepultura Chords & Tabs

Version: 1 Type: Tab 0 ratings
1 star 2 stars 3 stars 4 stars 5 stars
comments

Biotech Is Godzilla Tab

   
BIOTECH IS DOGZILLA!!! BIOTECH SUCKS ASS!!! BIOTECH DESTROYS ALL BECAUSE BIOTECH IS GODZILLA!!!

TUNING:Eb,Ab,Db,Gb,Bb,Eb,

INTRO
|--------------------------------------------||
|--------------------------------------------||
|--------------------------------------------||
|--------------------------------------------||
|------------------------------------------6-||
|-12/-0--0-0-0--1-1-1-1-1-1-2-2-2-2-2-2-0--4-||

|------------------------------------------||
|------------------------------------------||
|------------------------------------------||
|------------------------------------------||
|----------------------------------------6-||
|-0-0-0-0-0-0-1-1-1-1-1-1-2-2-2-2-2-2-0--4-||

|-------------------------||
|-------------------------||
|-------------------------||
|-------------------------||
|-2-2--2-2-2--2-2-2--2--6-||
|-0-0--0-0-0--0-0-0--0--4-||

CHORUS RIFF
|--------------------------||
|--------------------------||
|--------------------------||
|--------------------------||
|-2-2--2-2-2--2-2-2--2--6--||
|-0-0--0-0-0--0-0-0--0--4--||
  . .  . . .  . . .  .

 (GODZILLA GRRR...)
|-------------------||
|-------------------||
|-------------------||
|-------------------||
|-2-2---2-----------||
|-0-0---0-----------||
  . .

|----------------------------------------------
|----------------------------------------------
|----------------------------------------------
|----------------------------------------------
|-4-4--3-3-3-3-3-3-3-3---6-6--7-7-7-7-7-7-7-7--
|-2-2--1-1-1-1-1-1-1-1---4-4--5-5-5-5-5-5-5-5--
|
|---------------------------------------------||
|---------------------------------------------||
|---------------------------------------------||
|---------------------------------------------||
|-4-4--3-3-3-3-3-3-3-3---7-7--2-2-2-2-2-2-2-2-||
|-2-2--1-1-1-1-1-1-1-1---5-5--0-0-0-0-0-0-0-0-||
[ Tab from: http://www.guitartabs.cc/tabs/s/sepultura/biotech_is_godzilla_tab.html ]
SOLO
|---------|-------|--------|---------------|
|--2\-----|-2/----|-3/-----|-H-H-----------|
|--2\-----|-2/----|-3/-----|-12-14/15------|
|--2\--2\-|----2/-|-----2/-|---------------|
|--2\--2\-|----2/-|-----2/-|----------15/--|
|---------|-------|--------|---------------|
|
|---------------------------------|---------------------------|
|-12-15-12-15--15-12-15--15-12-15-|-15-12-15--15-12-15--15-12-|
|---H--P--H------P--H------P--H---|---P--H------P--H------P---|
|---------------------------------|---------------------------|
|---------------------------------|---------------------------|
|---------------------------------|---------------------------|
|
|----------------------------|----------------------------|
|----------------------------|------------------------3-0-|
|-14-14--14-12--14-14--14-12-|-14-14--14-12-14-(14)/---P--|
|----------P-------------P---|----------P-----------------|
|----------------------------|----------------------------|
|----------------------------|----------------------------|
|
|------------------|--------------|--------------|------------|
|-2---0-2----2-0-2-|-2-0-2--2-0-3-|-3-0-4--4-0-5-|-5-0-6--6-0-|
|---P--H------P-H--|--P-H----P-H--|--P-H----P-H--|--P-H----P--|
|------------------|--------------|--------------|------------|
|------------------|--------------|--------------|------------|
|------------------|--------------|--------------|------------|
|
|---------T-T-|-T-T-T-T-T-T-T-T-T-|------15-0-12-15/17---(17)/-||
|---------X-X-|-X-X/X/X/X/X/X/X/X-|------H-P-H--H--------------||
|----X/X------|-------------------|-X\-X-----------------------||
|-X/----------|-------------------|-X-\X-----------------------||
|-------------|-------------------|----------------------------||
|-------------|-------------------|----------------------------||

 SOLO RIFF
|-----------------------------||
|-----------------------------||
|-----------------------------||
|-----------------------------||
|-------------------------4-4-||
|-0--1-4-0--1-4-0--1-4-0--2-2-||

-great words from the great nick
Comments