Sepultura - Attitude Chords & Tabs

 

Attitude Chords & Tabs

Sepultura Chords & Tabs

Version: 2 Type: Bass Tab 0 ratings
1 star 2 stars 3 stars 4 stars 5 stars
comments

Attitude Bass Tab

-------------------------
***Attitude--Sepultura***
-------------------------

Written by Sepultura

5-string bass in standard tuning 


BASS INTRO:

G|-----------------------------|
D|-----------------------------|
A|-----------------------------|
E|-----------------------------|
B|--1--0--0--0--1--0--0--0--X--|


BRIDGE 1:
[ Tab from: http://www.guitartabs.cc/tabs/s/sepultura/attitude_btab_ver_2.html ]
A|-----------------------|
E|-----------------------|
B|--0h2--2--2--2/3--3/5--|


VERSE:

A|-------------|
E|-------------|
B|--1h3--3--3--|


BRIDGE 2:

A|--------------------------|
E|--------------------------|
B|--0--0--6--0--0--6--0--0--|

A|--------------------------------------------------|
E|--------------------------------------------------|
B|--0--0--6--0--0--6--0--6--0--0--0--0--0--0--0--0--|

   The only way...



















transcribed by max asare

Comments