Sepultura - Arise Chords & Tabs

 

Arise Chords & Tabs

Sepultura Chords & Tabs

Version: 2 Type: Bass Tab 0 ratings
1 star 2 stars 3 stars 4 stars 5 stars
comments

Arise Bass Tab

   
Arise Bass Tabs



[ Tab from: http://www.guitartabs.cc/tabs/s/sepultura/arise_btab_ver_2.html ]
Roots of Sepultura - www.treibsand.com/sepultura
Hopefully this won't be to far off, and you guys can correct my
mistakes.  I believe the tuning is straight E.  Have fun.....
                        Russ Farha/Lewisville,TX
Opening
A:--------------------------|
E:--1-1-4-1-1-1-1-0-----1-0-|
Riff A
A:---------------------------7-6-6-6-7--|
E:--0-0-0-0-0-0-0-0-0-0-0-0-------------|
Riff B- Verse
A:----------------------------------|
E:--0-0-0-0-0-0-0-0-0-0-0-0-0--1-1--|
Riff C-Chorus
A:-------------------------------------------|
E:--1-3----1-4----1-3--1-4--2-2-2-4-1-1-1-1--| to A
Riff D-Interlude begins
A:------------------------------------------------------------------|
E:--0----0-0-0-0-0-0-0-0-1-0----etc...----1-0-1-4-1-0-0-0-0-0-0-0---|
A:-------------------------------------|
E:--4-3-1-4-3-1-3-2-0-2-1-0-0-0-0-0----|
Bridge and Solo-
A:---------------------------------|
E:--4-3-0-4-3-0-3-2-0-2-1-0-0-0----|
A:-----------------------------------------------------------|
E:--0-0-0-0-0-0-0-0-0-0-0-0-0-0-0-0-0-0-0-0-0-0-0-0-4-3-4-3--|
For second verse set ("Victims of war...I've no land") just jam the 
F (1).
Then for "Face the enemy..." move down to an open E.
I think that about does it.  Enjoy.
Russ Farha/ Lewisville, TX


Comments