Sepultura - Arise Chords & Tabs

 

Arise Chords & Tabs

Sepultura Chords & Tabs

Version: 1 Type: Bass Tab 0 ratings
1 star 2 stars 3 stars 4 stars 5 stars
comments

Arise Bass Tab

   
 Arise: Bass 


G:--------------------------|
D:--------------------------|
A:--------------------------|
E:--1-1-4-1-1-1-1-0-----1-0-|

Riff [A]
G:--------------------------------------|
D:--------------------------------------|
A:---------------------------7-6-6-6-7--|
E:--0-0-0-0-0-0-0-0-0-0-0-0-------------|

Riff [B]- This is verse
G:----------------------------------|
D:----------------------------------|
A:----------------------------------|
E:--0-0-0-0-0-0-0-0-0-0-0-0-0--1-1--|

Riff [C]-This is chorus
G:-------------------------------------------|
D:-------------------------------------------|
A:-------------------------------------------|
E:--1-3----1-4----1-3--1-4--2-2-2-4-1-1-1-1--|
[ Tab from: http://www.guitartabs.cc/tabs/s/sepultura/arise_btab.html ]
Riff [D]-Interlude begins
G:--------------------------------------------------|
D:--------------------------------------------------|
A:--------------------------------------------------|
E:--0----0-0-0-0-0-0-0-0-1-0-keap on going----------/

G:-------------------------------------|
D:-------------------------------------|
A:-------------------------------------|
E:--4-3-1-4-3-1-3-2-0-2-1-0-0-0-0-0----|

Bridge 
G:---------------------------------|
D:---------------------------------|
A:---------------------------------|
E:--4-3-0-4-3-0-3-2-0-2-1-0-0-0----|

G:-----------------------------------------------------------|
D:-----------------------------------------------------------|
A:-----------------------------------------------------------|
E:--0-0-0-0-0-0-0-0-0-0-0-0-0-0-0-0-0-0-0-0-0-0-0-0-4-3-4-3--|

Enjoy!!!


Comments