Sepultura - Antichristanticop Chords & Tabs

 

Antichristanticop Chords & Tabs

Sepultura Chords & Tabs

Version: 1 Type: Tab 0 ratings
1 star 2 stars 3 stars 4 stars 5 stars
comments

Antichristanticop Tab

   
			  ANTICHRIST/ANTICOP by Sepultura.

I think this is more the Anticop version. When it comes to the lyrics, I've
written both.

Have fun with this Sepultura song! It kicks!

*This song was tabbed by Joar Kenneth Myhre.
E-mail: jkmyhre@online.no
--------------------------------------------------------------------

  Riff A.
  The main riff where the vocal goes.

e:|--------------------------------------------------------------------------|
B:|--------------------------------------------------------------------------|
G:|--------------------------------------------------------------------------|
D:|------------------------------------------------3--3--3-------------------|
A:|------------------------------------------------3--3--3-------------------|
E:|0--0--0--0--0--0--0--0--0--0--0--0--0--0--0--0--1--1--1--0--0--0--0--0--0-|


                                           


e:----------------------------------------|
B:----------------------------------------|
G:-------------------------------3--3--3--|
D:-------------------------------3--3--3-:|
A:-------------------------------1--1--1--|
E:-0--0--0--0--0--0--0--0--0--0-----------|


  Riff B.


e:---------------------------------------------------------------------------|
B:---------------------------------------------------------------------------|
G:---------------------------------------------------------------------------|
D:---------------------------------------------------------------------------|
A:4--4--4--4--4--4--4--4--5--4--4--4--4--4--4--4--4--5--4--4--4--4--4--4--4--|
E:---------------------------------------------------------------------------|


                     Riff C.                     
                     Chorus.
[ Tab from: http://www.guitartabs.cc/tabs/s/sepultura/antichristanticop_tab.html ]
e:------------------|--------------------------||
B:------------------|--------------------------||
G:------------------|--------------------------||
D:---------7--7--7-:|--2--------------3--5--6-:||
A:4--5--4--5--5--5--|--2--------------3--5--6--||
E:------------------|--0--0--0--0--0--1--3--4--||


  Riff D.


e:-------------------------------------------------------------|
B:-------------------------------------------------------------|
G:-------------------------------------------------------------|
D:--2-----------------------3--3/6--6--6--6--6--6--6--5--6--5-:|
A:--2--2--2--2--2--2--2--2--3--3/6--6--6--6--6--6--6--5--6--5--|
E:--0--0--0--0--0--0--0--0--1--1/4--4--4--4--4--4--4--3--4--3--|


Well, this is the whole song. The Antichrist version ends in a different way,
but mail me and I'll tab it to you.

Here's the lyrics:

	ANTICOP					ANTICHRIST

1.
	Police sucks				Born from hell
	Fucking fags				The superme force of evil
	Cops in my house			To destroy the altar
	Cops in the bus.			And slaugther the Christian's born

2.
	Kill some cops				Churches will be destroyed
	Fuck them up				Crosses will be breaken
	All the police				He's laughing is blasmephy
	Fucking die				Like a domain of death

Chorus.
	Anticop x3				Antichrist x3

3.
	I hate cops				The war is started 
	Shit for brains				Heavens on fire
	Stick your gun				From deep'y of hell
	Up your ass                             Leaving words of hate   

Chorus.

	Anticop x3				Antichrist x3

4.
	Repeat 3.				The terror is declared				
						The final fight's started
						The Antichrist and Lucifer
Chorus.						Fighting with angles and God
	Anticop x3
						Antichrist x4

*******************************************************************************

		THE RIFFS:

Riff A		4 times, then a break, then 4 new times with vocals

Riff B		4 times.

Riff A		4 times.

Riff B		4 times.

Riff C		4 times.

Riff A		4 times.

Riff B		4 times.

Riff C		4 times.

Riff D		4 times.

Riff A		2 times.--------|
				|------- SOLO
Riff B		4 times.--------|

Riff A		2 times.

Riff B		4 times.

Riff C		4 times.
*******************************************************************************

That't it.
E-mail me if you want any solo's for this song.

*This song was tabbed by Joar Kennenth Myhre.
E-mail: jkmyhre@online.no
Comments