Sepultura - Amen Chords & Tabs

 

Amen Chords & Tabs

Sepultura Chords & Tabs

Version: 1 Type: Tab 0 ratings
1 star 2 stars 3 stars 4 stars 5 stars
comments

Amen Tab

   
intro               Riff1                       Ending of riff1
|---------------------|----------------------|----------------------
|---------------------|----------------------|----------------------
|------------13-------|----------------------|----------------------
|---------------------|----------------------|----------------------
|------------11-------|---2--------7--6---2--|---6-6-6-6-6-6-6-6-6--
|--0---------0--------|---0---/7----------0--|---6-6-6-6-6-6-6-6-6--

(forgive me father)                                     (Iknow i've sinned...)
|--16--16--16--16--16--16--16--16---16--16--16-|--15--15--15--15--15--15--15--15-
|----------------------------------------------|---------------------------------
|--13--13--13--13--13--13--13--13---13--13--13-|--12--12--12--12--12--12--12--12-
|----------------------------------------------|---------------------------------
|--11--11--11--11--11--11--11--11---11--11--11-|--10--10--10--10--10--10--10--10-
|----------------------------------------------|---------------------------------

(i'm the chosen one.)
|--15--15--15--15--15--15------------15--15-------|
|-----------------------------0--0---0---0--------|
|--12--12--12--12--12--12-----0--0---0---0--------|
|-------------------------------------------------|
|--10--10--10--10--10--10-------------------------|
|-------------------------------------------------|

(terror raids the land...)
|-----------------------------------|
|-----------------------------------|
|-----------------------------------|
|-----------------------------------|
|--2-2-2-2-2-2-2-2-2---5-5-5---6-6--|
|--0-0-0-0-0-0-0-0-0---3-3-3---4-4--|
   . . . . . . . . .pm

|-------------------------------------------|--------------------|
|-------------------------------------------|--------------------|
|-------------------------------------------|--------------------|
|-------------------------------------------|--5-5--5-5---6-6--6-|
|--2-------6--------8-----2-----6------8----|--------------------|
|--0-0-0---4--0-0---6--0--0-0-0-4-0-0--6--0-|--3-3--3-3---4-4--4-|
     . .      . .           . .   . .

 Guitar1                                                guitar 2
|-------------------------------------------|--12---------------|
|-------------------------------------------|--11------11---11--|
|-------------------------------------------|----------13---13--|
|-------------------------------------------|-------------------|
|-2--------6--------8----6--5--6--5--6------|-------------------|
|-0--0--0--4--0--0--6----4--3--4--3--4---0--|-------------------|
     .  .

 Guitar 1                                         guitar 2
|-------------------|--------------------|---------------------------|
|-------------------|--------------------|---------------------------|
|-------------------|--------------------|-----------------------4---|
|-------------------|---------------4----|------------------3/2----3-|
|-7-------1/0--2-1--|----------1/0----3--|--7------1/0--2/1----------|
|-0---2/0-----------|--0---2/0-----------|--0--2/0-------------------|

 (where goin insane.)
|---------------------------|----------|
|-----------------------12--|----------|
|--------12-------15--------|------12--|
|---------------------------|----------|
|---------------------------|----------|
|--0------------------------|---0------|

|---------------------|-----------------------|
|---------------------|-----------------------|
|---------------------|-----------------------|
|-----7---9-----7---9-|-----------------------|
|---------------------|----5---7----5---7-----|
|--0---------0--------|--0--------0--------0--|

|----------------------------------|
|----------------------------------|
|----13"---------------------------|
|----------------10/9--------9-----|
|----11"----------8/7--------7-----|
|------------0-0-------0--0--------|
                       .  .
 
|--------------------------------------------------------|-----------------|
|--------------------------------------------------------|-----------------|
|--------------------------------------------------------|-----------------|
|--13-------13/16-------17------17/19------17------16----|-----------------|
|--11"------11/14"------15"-----15/17"-----15"-----14"---|--2-2--2-2--2-2--|
|--------------------------------------------------------|--0-0--0-0--0-0--|

picking
|----------------------|--------------|
|---9----21----9----21-|---8----20----|
|----------------------|--------------|
|---6----18----6----18-|---5----17----|
|----------------------|--------------|
|----------------------|--------------|





 A M E N



Eb tuning - (Eb Ab Db Gb Bb Eb)

In the parts with two guitars, the bottom part is Max's (simpler to play)

Generally one dash is a 16th note or a 32nd note in length, so either ----
or -------- is one beat.  The rhythms are transcribed as accurately as
possible.
-=-=-=-=-=-=-=-=-=-=-=-=-=-=-=-=-=-=-=- 
Eb|----------------|----------------|4---------------|----------------|
Bb|----------------|----------------|5---------------|----------------|
Gb|0---------------|----------------|----------------|----------------|
Db|2---------------|----------------|6---------------|----------------|
Ab|2---------------|----------------|----------------|----------------|
Eb|0---------------|----------------|----------------|----------------|
  |                |                |                |                |
Db|2---------------|----------------|2---------------|----------------|
Ab|2---------------|----------------|2---------------|----------------|
Eb|0---------------|----------------|0---------------|----------------|

Riff A1
   /=== 3x ==========================\
Gb||---------------------------------||--------------------------------|
Db||*2---------------2--------------*||2---------------8-8-8-8-8-8-8-8-|
Ab||*2-----------7-6-2-----------7-6*||2-----------7-6-6-6-6-6-6-6-6-6-|
Eb||-0-------3///----0-------3///----||0-------3///----6-6-6-6-6-6-6-6-|

Play Riff A1

Riff B
Eb|4444444444444444|3333333333333333|
Bb|5555555555555555|5555555555555555|
Gb|----------------|----------------|
Db|----------------|----------------|
Ab|----------------|----------------|
Eb|----------------|----------------|
  |                |                |
Gb|1---------------|0---------------|
Db|2---------------|2---------------|
Ab|2---------------|2---------------|
Eb|0---------------|0---------------|

Play Riff B 8x

Riff C
Gb|--------------------------------|
Db|------------------5-5-5-5-6-6-6-|
Ab|2-2-2-2-2-2-2-2-2-5-5-5-5-6-6-6-|
Eb|0-0-0-0-0-0-0-0-0-3-3-3-3-4-4-4-|
PM . . . . . . . . .

Play Riff C 4x

Then play:
Gb|--------------------------------|------------------7-7-7-7-8-8-8-|-
Db|------6-----8\\-------6-----8\\-|------6-----8\\---5-5-5-5-6-6-6-|-
Ab|2-----6-----8\\-2-----6-----8\\-|2-----6-----8\\---5-5-5-5-6-6-6-|-
Eb|0-0-0-4-0-0-6\\-0-0-0-4-0-0-6\\-|0-0-0-4-0-0-6\\-0---------------|-
PM|  . .   . .       . .   . .     |  . .   . .     .               |
Gb|--------------------------------|--------------------------------|-
Db|------6-----8---------6-----8---|------6-----8-----5-5-5-5-6-6-6-|-
Ab|2-----6-----8---2-----6-----8---|2-----6-----8---2-5-5-5-5-6-6-6-|-
Eb|0-0-0-4-0-0-6---0-0-0-4-0-0-6---|0-0-0-4-0-0-6---0-3-3-3-3-4-4-4-|-
PM   . .   . .       . .   . .        . .   . .     .

Eb-|--------------------------------|-----------------12---------12--|
Bb-|--------------------------------|---------------/11----------11--|
Gb-|--------------------------------|----------------------9-----9---|
Db-|------6-----8\\-------6-----8\\-|------6-----8-----let-ring------|
Ab-|2-----6-----8\\-2-----6-----8\\-|2-----6-----8-------------------|
Eb-|0-0-0-4-0-0-6\\-0-0-0-4-0-0-6\\-|0-0-0-4-0-0-6-------------------|
PM |  . .   . .       . .   . .     |  . .   . .                     |
Gb-|--------------------------------|--------------------------------|
Db-|------6-----8---------6-----8---|------6-----8---6-5---6-5---6---|
Ab-|2-----6-----8---2-----6-----8---|2-----6-----8---6-5---6-5---6---|
Eb-|0-0-0-4-0-0-6---0-0-0-4-0-0-6---|0-0-0-4-0-0-6---4-3---4-3---4---|
PM    . .   . .       . .   . .        . .   . .     .     .

Play Riff C 4x
[ Tab from: http://www.guitartabs.cc/tabs/s/sepultura/amen_tab.html ]
Then play:
   /=== 3x ==========================\
Gb||---------------------------------||----------------------------4---|
Db||*2------------------------------*||2-----------------------3p2---3-|
Ab||*2-----------------------2p1-3p2*||2---------------2p1-3p2---------|
Eb||-0-------------------2p0---------||0-----------2p0-----------------|
  ||                                 ||                                |
Gb||---------------------------------||--------------------------------|
Db||*2------------------------------*||2---------------------------4---|
Ab||*2-----------------------2p1-3p2*||2-----------------------2p1---3-|
Eb||-0-------------------2p0---------||0-------------------2p0---------|

Play Riff C 4x

Then play:
Ab|22-22-22-22-22-2|2-22-22-22-22-22|-22-22-22-22-22-|22-22-22-22-22-2|
Eb|00-00-00-00-00-0|0-00-00-00-00-00|-00-00-00-00-00-|00-00-00-00-00-0|
PM .. .. .. .. .. . . .. .. .. .. ..  .. .. .. .. ..  .. .. .. .. .. .

Riff D1
           /= 3 =\         /= 3 =\          /= 3 =\
Eb|-----------6--7------------6--7-|-----------6--7-----------------|
Bb|--------8---------------8-------|--------8-----------------------|
Gb|--------------------------------|--------------------------------|
Db|2---------------2---------------|2---------------2---------------|
Ab|2---------------2---------------|2---------------2---------------|
Eb|0---------------0---------------|0---------------0---------------|
  |                                |                                |
Gb|--------------------------------|--------------------------------|
Db|2-------5~~~----2-------5~~~----|2-------5~~~----2---------------|
Ab|2---------------2---------------|2---------------2---------------|
Eb|0---------------0---------------|0---------------0---------------|

Play Riff D1 2x

Then play (heavy palm muting):
Db|--1214--1214--1214--1214--1214--|--------------------------------|-
Ab|--------------------------------|5-7---5-7---5-7---5-7---5-7---5-|-
Eb|0-----0-----0-----0-----0-----0-|----0-----0-----0-----0-----0---|-
PM|. . . . . . . . . . . . . . . . |. . . . . . . . . . . . . . . . |
Ab|--5-7---5-7---5-7---5-7---5-7---|5-7---5-7---5-7---5-7---5-7---5-|-
Eb|0-----0-----0-----0-----0-----0-|----0-----0-----0-----0-----0---|-
PM . . . . . . . . . . . . . . . .  . . . . . . . . . . . . . . . .

Db-|----1214--1214--1214--1214--1214|--------------------------------|-
Ab-|7-------------------------------|--5-7---5-7---5-7---5-7---5-7---|-
Eb-|--0-----0-----0-----0-----0-----|0-----0-----0-----0-----0-----0-|-
PM |. . . . . . . . . . . . . . . . |. . . . . . . . . . . . . . . . |
Ab-|7---5-7---5-7---5-7---5-7---5-7-|--5-7---5-7---5-7---5-7---5-7---|-
Eb-|--0-----0-----0-----0-----0-----|0-----0-----0-----0-----0-----0-|-
PM  . . . . . . . . . . . . . . . .  . . . . . . . . . . . . . . . .

Db-|1214--1214--1214--1214--1214--12|14------------------------------|-
Ab-|--------------------------------|----5-7---5-7---5-7---5-7---5-7-|-
Eb-|----0-----0-----0-----0-----0---|--0-----0-----0-----0-----0-----|-
PM |. . . . . . . . . . . . . . . . |. . . . . . . . . . . . . . . . |
Ab-|5-7---5-7---5-7---5-7---5-7---5-|7---5-7---5-7---5-7---5-7---5-7-|-
Eb-|----0-----0-----0-----0-----0---|--0-----0-----0-----0-----0-----|-
PM  . . . . . . . . . . . . . . . .  . . . . . . . . . . . . . . . .

Db-|--1214--1214--1214--1214--1214--|--------------------------------|-
Ab-|--------------------------------|5-7---5-7---5-7---5-7---5-7---5-|-
Eb-|0-----0-----0-----0-----0-----0-|----0-----0-----0-----0-----0---|-
PM |. . . . . . . . . . . . . . . . |. . . slowly let up palm mute   |
Ab-|--5-7---5-7---5-7---5-7---5-7---|5-7---5-7---5-7---5-7---5-7---5-|-
Eb-|0-----0-----0-----0-----0-----0-|----0-----0-----0-----0-----0---|-
PM  . . . . . . . . . . . . . . . .  . . . slowly let up palm mute

Gb-|13"-----------------------------|--------------------------------|-
Db-|-----trem.pick------------------|--------------------------------|-
Ab-|11"-----------------------------|--------------------------------|-
Eb-|--------------------------------|--------------------------------|-

Gb-|10\9-----9------10\9-----9------|10\9-----9------10\9-----9------|-
Db-|10\9-----9------10\9-----9------|10\9-----9------10\9-----9------|-
Ab-|8-\7-----7------8-\7-----7------|8-\7-----7------8-\7-----7------|-
Eb-|-----0-0-------------0-0--------|-----0-0-------------0-0--------|-
PM       . .             . .              . ..            . .

Gb-|13"-------------16"-----17"-----|19"---------17"-16"-------------|-
Db-|--------------------------------|--------------------------------|-
Ab-|11"-------------14"-----15"-----|17"---------15"-14"-------------|-
Eb-|-----------trem.pick------------|--------------------------------|-
   |                                |                                |
Gb-|13"-----------------------------|--------------------------------|-
Db-|-----------trem.pick------------|--------------------------------|-
Ab-|11"-----------------------------|--------------------------------|-
Eb-|--------------------------------|--------------------------------|-

Ab-|22-22-22-22-22-2|2-22-22-22-22-22|-22-22-22-22-22-|
Eb-|00-00-00-00-00-0|0-00-00-00-00-00|-00-00-00-00-00-|
PM  .. .. .. .. .. . . .. .. .. .. ..  .. .. .. .. ..

Riff A2
Gb|--------------------------------|--------------------------------|
Db|2---------------2---------------|2---------------8---------------|
Ab|2-----------7-6-2-----------7-6-|2-----------7-6-6---------------|
Eb|0-------3///----0-------3///----|0-------3///----6---------------|

Play Riff A2 2x

Riff A3
Gb|--------------------------------|--------------------------------|
Db|2---------------2---------------|2---------------8---------------|
Ab|2-----------7-6-2-----------7-6-|2-----------7-6-6---------------|
Eb|0-------3///----0-------3///----|0-------3///----6---------------|
  |                                |                                |
Gb|----'---------------'-----------|----'---------------------------|
Db|2---2-----------2---2-----------|2---2-----------8---------------|
Ab|2---2-----------2---2-----------|2---2-----------6---------------|
Eb|0---0-----------0---0-----------|0---0-----------6---------------|

Play Riff A3

Riff A4
Gb|--------------------------------|--------------------------------|
Db|2---------------2---------------|2---------------8-8-8-8-8-8-8-8-|
Ab|2-----------7-6-2-----------7-6-|2-----------7-6-6-6-6-6-6-6-6-6-|
Eb|0-------3///----0-------3///----|0-------3///----6-6-6-6-6-6-6-6-|

Play Riff A4
Play Riff C 4x

Then play:
Eb||-4-4-4-4-4-4-4-4-4-4-4-4-4-4-4-4-|3-3-3-3-3-3-3-3-3-3-3-3-3-3-3-3-||
Bb||-5-5-5-5-5-5-5-5-5-5-5-5-5-5-5-5-|5-5-5-5-5-5-5-5-5-5-5-5-5-5-5-5-||
Gb||*--------------------------------|-------------------------------*||
Db||*--------------------------------|-------------------------------*||
Ab||---------------------------------|--------------------------------||
Eb||---------------------------------|--------------------------------||
  ||                                 |                                ||
Gb||---------------------------------|--------------------------------||
Db||*------6-----8---------6-----8---|------6-----8---------6-----8--*||
Ab||*2-----6-----8---2-----6-----8---|2-----6-----8---2-----6-----8--*||
Eb||-0-0-0-4-0-0-6---0-0-0-4-0-0-6---|0-0-0-4-0-0-6---0-0-0-4-0-0-6---||
PM     . .   . .       . .   . .        . .   . .       . .   . .

Play Riff C 4x

Riff D2
           /= 3 =\         /= 3 =\
Eb|-----------6--7------------6--7-|
Bb|--------8---------------8-------|
Gb|--------------------------------|
Db|2---------------2---------------|
Ab|2---------------2---------------|
Eb|0---------------0---------------|
  |                                |
Gb|--------------------------------|
Db|2-------5~~~----2-------5~~~----|
Ab|2---------------2---------------|
Eb|0---------------0---------------|

Play Riff D2 4x, last time let the notes ring out while drums play for 2 bars

Then play:
Eb|----------------|----------------|-----
Bb|----------------|----------------|-----
Gb|----------------|----------------|-----
Db|1---------------|----------------|2----
Ab|2---------------|----------------|2----
Eb|0---------------|----------------|0----

-great words from the great nick
Comments