Sepultura - Ambush Chords & Tabs

 

Ambush Chords & Tabs

Sepultura Chords & Tabs

Version: 1 Type: Bass Tab 0 ratings
1 star 2 stars 3 stars 4 stars 5 stars
comments

Ambush Bass Tab

Ambush Bass Tabs
[ Tab from: http://www.guitartabs.cc/tabs/s/sepultura/ambush_btab.html ]
Roots of Sepultura - www.treibsand.com/sepultura
Ambush
roots
intro
A----7--7-7---9---10---9-----7--7-7---9---10---9---10-9---10-9----
E-------------------------------------------------------------------------
 riff 1
A-------------------------------
E----0-----0--0---1--3---1-----4----4----
riff 2  (screaminng for...)
A---------------7------------------------
E------0--------0----3-3-3-3-2-2-2-2---
chorus Riff
A-----------------------------7----------------------------------------
E-----6-6-6-0---6-6-6-0----0-------6-6-6-0--6-6-6-0--x-x-x-x---
 

Comments