Sepultura - Altered State Chords & Tabs

 

Altered State Chords & Tabs

Sepultura Chords & Tabs

Version: 1 Type: Tab 0 ratings
1 star 2 stars 3 stars 4 stars 5 stars
comments

Altered State Tab

152 bpm
|-----------------|-----------------|-13------13------|-13------13--\---|
|-----------------|-----------------|-17------17------|-17------17------|
|-----------------|-----------------|-----------------|-----------------|
|-----------------|-----------------|-----------------|-----------------|
|-----------------|-----------------|-----------------|-----------------|
|-0\--------------|(0\)-------------|-----------------|-----------------|
|  trem. bar-----------------------|
|-----------------|-----------------|-----------------|-----------------|
|-----------------|-----------------|-----------------|-----------------|
|-----------------|-----------------|-----------------|-----------------|
|-----------------|-----------------|-----------------|-----------------|
|-2-2-2-2-2-2-2-2-|-2-2-2-2-2--2--2-|-2-2-2-2-2-2-2-2-|-2-2-2-2-2--2--2-|
|-0-0-0-0-0-0-0-0-|-0-0-0-0-0--0--0-|-0-0-0-0-0-0-0-0-|-0-0-0-0-0--0--0-|
                            {  3  }                             {  3  }

|-----------------|-----------------|-18------18------|-18------18------||
|-----------------|----------------x|--------x-------x|--------x--------||
|-----------------|---------------x-|-------x-------x-|-------x---------||
|-----------------|--------------x--|------x-------x--|------x----------||
|-----------------|-----------------|-----------------|-----------------||
|-0---------------|(0)--------------|-----------------|-----------------||
|  trem. bar--------------------|
|-----------------|-----------------|-----------------|-----------------||
|-----------------|-----------------|-----------------|-----------------||
|-----------------|-----------------|-----------------|-----------------||
|-----------------|-----------------|-----------------|-----------------||
|-2-2-2-2-2-2-2-2-|-2-2-2-2-2--2--2-|-2-2-2-2-2-2-2-2-|-2-2-2-2-2--2--2-||
|-0-0-0-0-0-0-0-0-|-0-0-0-0-0--0--0-|-0-0-0-0-0-0-0-0-|-0-0-0-0-0--0--0-||
                            {  3  }                             {  3  }

|-----------------|-----------------|-----------------|-----------------|
|-----------------|-----------------|-----------------|-----------------|
|-----------------|-----------------|-----------------|-----------------|
|-----------------|-----------------|-----------------|-----------------|
|-2-2-22222-2-2222|-2-2-2-2-2-2-2-2-|-2-2-22222-2-2222|-2-2-2-2-2-2-2-2-|
|-0-0-00000-0-0000|-0-0-0-0-0-0-0-0-|-0-0-00000-0-0000|-0-0-0-0-0-0-0-0-|

|-----------------|-----------------|-----------------|-----------------|
|-----------------|-----------------|-----------------|-----------------|
|-----------------|-----------------|-----------------|-----------------|
|-----------------|-----------------|-----------------|-----------------|
|-2-2-22222-2-2222|-2-2-2-2-2-2-2-2-|-2-2-22222-2-2222|-2-2-2-2-2-2-2-2-|
|-0-0-00000-0-0000|-0-0-0-0-0-0-0-0-|-0-0-00000-0-0000|-0-0-0-0-0-0-0-0-|

|-----------------|-----------------|-----------------|-----------------||
|-----------------|-----------------|-----------------|-----------------||
|-----------------|-----------------|-----------------|-----------------||
|-----------------|-----------------|-----------------|-----------------||
|-2-2-22222-2-2222|-2-2-2-2-2-2-2-2-|-2-2-22222-2-2222|-2-2-2-2-2-2-2-2-||
|-0-0-00000-0-0000|-0-0-0-0-0-0-0-0-|-0-0-00000-0-0000|-0-0-0-0-0-0-0-0-||

|-----------------|-----------------|-----------------|-----------------||
|-----------------|-----------------|-----------------|-----------------||
|-----------------|-----------------|-----------------|-----------------||
|-----------------|-----------------|-----------------|-----------------||
|-2-2-22222-2-2222|-2-6-5-4-5-4---3-|-2-2-22222-2-2222|-2-6-5-4-5-4---3-||
|-0-0-00000-0-0000|-0-4-3-2-3-2-0-1-|-0-0-00000-0-0000|-0-4-3-2-3-2-0-1-||

|-----------------|-----------------|-----------------|-----------------|
|-----------------|-----------------|-----------------|-----------------|
|-11--------------|(11)---11111010/-|(14)-------------|(14)---1313----10|
|-----------------|-----------------|-----------------|-----------------|
|-9---------------|(9)----9-9\8-8-/-|(12)-------------|(12)---1111----8-|
|-----------------|-----------------|-----------------|-----------------|
|
|-----------------|-----------------|-----------------|-----------------|
|-----------------|-----------------|-----------------|-----------------|
|-----------------|-----------------|-----------------|-----------------|
|-----------------|-----------------|-----------------|-----------------|
|-4---------------|(4)--------------|-4---------------|(4)--------------|
|-2---------------|(2)--------------|-2---------------|(2)--------------|

|-----------------|-----------------|-----------------|-----------------||
|-----------------|-----------------|-----------------|-----------------||
|-10--------------|(10)---1111-----\|-6---------------|(6)------6\5-5---||
|-----------------|-----------------|-----------------|-----------------||
|-8---------------|(8)----9-9------\|-4---------------|(4)------4\3-3---||
|-----------------|-----------------|-----------------|-----------------||
|
|-----------------|-----------------|-----------------|-----------------||
|-----------------|-----------------|-----------------|-----------------||
|-----------------|-----------------|-----------------|-----------------||
|-----------------|-----------------|-----------------|-----------------||
|-4---------------|(4)--------------|-4---------------|(4)--------------||
|-2---------------|(2)--------------|-2---------------|(2)--------------||

 verse 1
|-----------------|-----------------|-----------------|-----------------|
|-----------------|-----------------|-----------------|-----------------|
|-----------------|-----------------|-----------------|-----------------|
|-----------------|-----------------|-----------------|-----------------|
|-2-2-22222-2-2222|-2-6-5-4-5-4---3-|-2-2-22222-2-2222|-2-6-5-4-5-4---3-|
|-0-0-00000-0-0000|-0-4-3-2-3-2-0-1-|-0-0-00000-0-0000|-0-4-3-2-3-2-0-1-|

|-----------------|-----------------|-----------------|-----------------||
|-----------------|-----------------|-----------------|-----------------||
|-----------------|-----------------|-----------------|-----------------||
|-----------------|-----------------|-----------------|-----------------||
|-2-2-22222-2-2222|-2-6-5-4-5-4---3-|-2-2-22222-2-2222|-2-6-5-4-5-4---3-||
|-0-0-00000-0-0000|-0-4-3-2-3-2-0-1-|-0-0-00000-0-0000|-0-4-3-2-3-2-0-1-||

|-----------------|-----------------|-----------------|-----------------|
|-----------------|-----------------|-----------------|-----------------|
|-11--------------|(11)---11111010/-|(14)-------------|(14)---1313----10|
|-----------------|-----------------|-----------------|-----------------|
|-9---------------|(9)----9-9\8-8-/-|(12)-------------|(12)---1111----8-|
|-----------------|-----------------|-----------------|-----------------|
|
|-----------------|-----------------|-----------------|-----------------|
|-----------------|-----------------|-----------------|-----------------|
|-----------------|-----------------|-----------------|-----------------|
|-----------------|-----------------|-----------------|-----------------|
|-4---------------|(4)--------------|-4---------------|(4)--------------|
|-2---------------|(2)--------------|-2---------------|(2)--------------|

|-----------------|-----------------|-----------------|-----------------||
|-----------------|-----------------|-----------------|-----------------||
|-10--------------|(10)---1111-----\|-6---------------|(6)------6\5-5---||
|-----------------|-----------------|-----------------|-----------------||
|-8---------------|(8)----9-9------\|-4---------------|(4)------4\3-3---||
|-----------------|-----------------|-----------------|-----------------||
|
|-----------------|-----------------|-----------------|-----------------||
|-----------------|-----------------|-----------------|-----------------||
|-----------------|-----------------|-----------------|-----------------||
|-----------------|-----------------|-----------------|-----------------||
|-4---------------|(4)--------------|-4---------------|(4)--------------||
|-2---------------|(2)--------------|-2---------------|(2)--------------||

|-----------------|-----------------|-----------------|-----------------|
|-----------------|-----------------|-----------------|-----------------|
|-----------------|-----------------|-----------------|-----------------|
|-------5---------|-----------------|-------5---------|-----------------|
|-------3-------5-|-----------------|-------3-------5-|---------3--3--3-|
|-222222--2222223-|-1111111111111111|-222222--2222223-|-111111111--1--1-|
                                                                {  3  }

|-----------------|-----------------|-----------------|-----------------||
|-----------------|-----------------|-----------------|-----------------||
|-----------------|-----------------|-----------------|-----------------||
|-------5---------|-----------------|-------5---------|-----------------||
|-------3-------5-|-----------------|-------3-------5-|---6-5-4-5-4---3-||
|-222222--2222223-|-1111111111111111|-222222--2222223-|-0-4-3-2-3-2-0-1-||

 verse 2
|-----------------|-----------------|-----------------|-----------------|
|-----------------|-----------------|-----------------|-----------------|
|-----------------|-----------------|-----------------|-----------------|
|-----------------|-----------------|-----------------|-----------------|
|-2-2-22222-2-2222|-2-6-5-4-5-4---3-|-2-2-22222-2-2222|-2-6-5-4-5-4---3-|
|-0-0-00000-0-0000|-0-4-3-2-3-2-0-1-|-0-0-00000-0-0000|-0-4-3-2-3-2-0-1-|

|-----------------|-----------------|-----------------|-----------------||
|-----------------|-----------------|-----------------|-----------------||
|-----------------|-----------------|-----------------|-----------------||
|-----------------|-----------------|-----------------|-----------------||
|-2-2-22222-2-2222|-2-6-5-4-5-4---3-|-2-2-22222-2-2222|-2-6-5-4-5-4---2-||
|-0-0-00000-0-0000|-0-4-3-2-3-2-0-1-|-0-0-00000-0-0000|-0-4-3-2-3-2-0-0-||

 verse 3
|-----------------|-----------------|-----------------|-----------------|
|-----------------|-----------------|-----------------|-----------------|
|-----------------|-----------------|-----------------|-----------------|
|---------4-4---4-|-5-5---5---------|---------4-4---4-|-5-5---5---------|
|-3-3---3-2-2---2-|-3-3---3---------|-3-3---3-2-2---2-|-3-3---3---------|
|-1-1---1---------|---------22222222|-1-1---1---------|---------22222222|

|-----------------|-----------------|-----------------|-----------------||
|-----------------|-----------------|-----------------|-----------------||
|-----------------|-----------------|-----------------|-----------------||
|---------4-4---4-|-5-5---5---------|---------4-4---4-|-5-5---5---------||
|-3-3---3-2-2---2-|-3-3---3---------|-3-3---3-2-2---2-|-3-3---3---------||
|-1-1---1---------|---------22222222|-1-1---1---------|---------22222222||

|-----------------|-----------------|-----------------|-----------------|
|-----------------|-----------------|-----------------|-----------------|
|-----------------|-----------------|-----------------|-----------------|
|-----------------|-----------------|-----------------|-----------------|
|-3---------------|-----------------|-3---------------|-----------------|
|-1-11111111111111|-1111111122222222|-1-11111111111111|-1111111122222222|

|-----------------|-----------------|-----------------|-----------------||
|-----------------|-----------------|-----------------|-----------------||
|-----------------|-----------------|-----------------|-----------------||
|-----------------|-----------------|-----------------|-----------------||
|-3---------------|-----------------|-3---------------|-----------------||
|-1-11111111111111|-1111111122222222|-1-11111111111111|-1111111122222222||

 chorus
|------------------|-----------------|------------------|-----------------|
|------------------|-----------------|------------------|-----------------|
|------------------|-----------------|------------------|-----------------|
|-------4----------|-----------------|-------4----------|-----------------|
|-3-33332p03-33334-|-2-2222222-222222|-3-33332p03-33334-|-2-2222222-222222|
|-1-1111---1-11112-|-0-0000000-000000|-1-1111---1-11112-|-0-0000000-000000|

|------------------|-----------------|------------------|-----------------||
|------------------|-----------------|------------------|-----------------||
|------------------|-----------------|------------------|-----------------||
|-------4----------|-----------------|-------4----------|-----------------||
|-3-33332p03-33334-|-2-2222222-222222|-3-33332p03-33334-|-2-2222222-222222||
|-1-1111---1-11112-|-0-0000000-000000|-1-1111---1-11112-|-0-0000000-000000||

 108 bpm
|-----------------|-----------------|-----------------|-----------------|
|-----------------|-----------------|-----------------|-----------------|
|-----------------|-----------------|-----------------|-----------------|
|-----------------|-----------------|-----------------|-----------------|
|-2----7--6----7--|-6----7--6-7-6-7-|-10----7-6-----7-|-6-----7-6-7-6-7-|
|-0----5--4----5--|-4----5--4-5-4-5-|-8---005-4---005-|-4---005-4-5-4-5-|

|-----------------|-----------------|-----------------|-----------------||
|-----------------|-----------------|-----------------|-----------------||
|-----------------|-----------------|-----------------|-----------------||
|-----------------|-----------------|-----------------|-----------------||
|-2-----7-6-----7-|-6-----7-6-7-6-7-|-10----7-6-----7-|-6-----7-6-7-6-7-||
|-0-----5-4---005-|-4---005-4-5-4-5-|-8-----5-4---005-|-4---005-4-5-4-5-||

 188 bpm
|-----------------|-----------------|-----------------|-----------------||
|-----------------|-----------------|-----------------|-----------------||
|-----------------|-----------------|-----------------|-----------------||
|-----------------|-----------------|-----------------|-----------------||
|-3-2-2-2-2-2-2-2-|-3-2-2-2-2-2-2-2-|-3-2-2-2-2-2-2-2-|-3-2-2-3-2-2-3---||
|-1-0-0-0-0-0-0-0-|-1-0-0-0-0-0-0-0-|-1-0-0-0-0-0-0-0-|-1-0-0-1-0-0-1---||

|-----------------|-----------------|-----------------|-----------------|
|-----------------|-----------------|-----------------|-----------------|
|-11--------------|(11)-------------|-10--------------|-10----10----10--|
|-9---------------|(9)--------------|-9---------------|-9-9-9-9-9-9-9-9-|
|-----------------|-----------------|-----------------|-----------------|
|-----------------|-----------------|-----------------|-----------------|
|
|-----------------|-----------------|-----------------|-----------------|
|-----------------|-----------------|-----------------|-----------------|
|-----------------|-----------------|-----------------|-----------------|
|-----------------|-----------------|-----------------|-----------------|
|-3-2-2-2-2-2-2-2-|-3-2-2-2-2-2-2-2-|-3-2-2-2-2-2-2-2-|-3-2-2-3-2-2-3---|
|-1-0-0-0-0-0-0-0-|-1-0-0-0-0-0-0-0-|-1-0-0-0-0-0-0-0-|-1-0-0-1-0-0-1---|

|-----------------|-----------------|-----------------|-----------------|
|-----------------|-----------------|-----------------|-----------------|
|-11--------------|-11----11----11--|-10--------------|-10----10----10--|
|-9---------------|-9-----9-----9---|-9---------------|-9-9-9-9-9-9-9-9-|
|-----------------|-----------------|-----------------|-----------------|
|-----------------|-----------------|-----------------|-----------------|
|
|-----------------|-----------------|-----------------|-----------------|
|-----------------|-----------------|-----------------|-----------------|
|-----------------|-----------------|-----------------|-----------------|
|-----------------|-----------------|-----------------|-----------------|
|-3-2-2-2-2-2-2-2-|-3-2-2-2-2-2-2-2-|-3-2-2-2-2-2-2-2-|-3-2-2-3-2-2-3---|
|-1-0-0-0-0-0-0-0-|-1-0-0-0-0-0-0-0-|-1-0-0-0-0-0-0-0-|-1-0-0-1-0-0-1---|

|-----------------|-----------------|-----------------|-----------------|
|-----------------|-----------------|-----------------|-----------------|
|-11----10----11--|---10----11--10--|-10----9-----10--|---9-----10--9---|
|---9-9---9-9---9-|-9---9-9---9---9-|---8-8---8-8---8-|-8---8-8---8---8-|
|-----------------|-----------------|-----------------|-----------------|
|-----------------|-----------------|-----------------|-----------------|
|
|-----------------|-----------------|-----------------|-----------------|
|-----------------|-----------------|-----------------|-----------------|
|-9-----8-----9---|---8-----9---8---|-8-----7-----8---|---7-----8---7---|
|---7-7---7-7---7-|-7---7-7---7---7-|---6-6---6-6---6-|-6---6-6---6---6-|
|-----------------|-----------------|-----------------|-----------------|
|-----------------|-----------------|-----------------|-----------------|
|
|-----------------|-----------------|-----------------|-----------------|
|-----------------|-----------------|-----------------|-----------------|
|-----------------|-----------------|-----------------|-----------------|
|-----------------|-----------------|-----------------|-----------------|
|-3-2-2-2-2-2-2-2-|-3-2-2-2-2-2-2-2-|-3-2-2-2-2-2-2-2-|-3-2-2-3-2-2-3---|
|-1-0-0-0-0-0-0-0-|-1-0-0-0-0-0-0-0-|-1-0-0-0-0-0-0-0-|-1-0-0-1-0-0-1---|
[ Tab from: http://www.guitartabs.cc/tabs/s/sepultura/altered_state_tab.html ]
|-----------------|-----------------|-----------------|-----------------||
|-----------------|-----------------|-----------------|-----------------||
|-11----10----11--|---10----11--10--|-10----9-----10--|---9-----10--9---||
|---9-9---9-9---9-|-9---9-9---9---9-|---8-8---8-8---8-|-8---8-8---8---8-||
|-----------------|-----------------|-----------------|-----------------||
|-----------------|-----------------|-----------------|-----------------||
|
|-----------------|-----------------|-----------------|-----------------||
|-----------------|-----------------|-----------------|-----------------||
|-9-----8-----9---|---8-----9---8---|-8-----7-----8---|---7-----8---7---||
|---7-7---7-7---7-|-7---7-7---7---7-|---6-6---6-6---6-|-6---6-6---6---6-||
|-----------------|-----------------|-----------------|-----------------||
|-----------------|-----------------|-----------------|-----------------||
|
|-----------------|-----------------|-----------------|-----------------||
|-----------------|-----------------|-----------------|-----------------||
|-----------------|-----------------|-----------------|-----------------||
|-----------------|-----------------|-----------------|---------------4-||
|-3-2-2-2-2-2-2-2-|-3-2-2-2-2-2-2-2-|-3-2-2-2-2-2-2-2-|-3-2-2-3-2-2-4-2-||
|-1-0-0-0-0-0-0-0-|-1-0-0-0-0-0-0-0-|-1-0-0-0-0-0-0-0-|-1-0-0-1-0-0-2---||

 guitar solo
|-----------------|-----------------|-----------------|-----------------|
|-----------------|-----------------|-----------------|-----------------|
|-----------------|-----------------|-----------------|-----------------|
|-3-------------4-|-3-------------4-|-3---------------|---------------4-|
|-1-----2-----4-2-|-1-----2-----4-2-|-1---------------|-------------4-2-|
|---0-0-0-0-0-2---|---0-0-0-0-0-2---|---0-0-0-0-0-0-0-|-0-0-0-0-0-0-2---|

|-----------------|-----------------|-----------------|-----------------|
|-----------------|-----------------|-----------------|-----------------|
|-----------------|-----------------|-----------------|-----------------|
|-3-------------4-|-3-------------4-|-3---------------|---------------4-|
|-1-----2-----4-2-|-1-----2-----4-2-|-1---------------|-------------4-2-|
|---0-0-0-0-0-2---|---0-0-0-0-0-2---|---0-0-0-0-0-0-0-|-0-0-0-0-0-0-2---|

|-----------------|-----------------|-----------------|-----------------|
|-----------------|-----------------|-----------------|-----------------|
|-----------------|-----------------|-----------------|-----------------|
|-3-------------4-|-3-------------4-|-3---------------|---------------4-|
|-1-----2-----4-2-|-1-----2-----4-2-|-1---------------|-------------4-2-|
|---0-0-0-0-0-2---|---0-0-0-0-0-2---|---0-0-0-0-0-0-0-|-0-0-0-0-0-0-2---|

|-----------------|-----------------|-----------------|-----------------||
|-----------------|-----------------|-----------------|-----------------||
|-----------------|-----------------|-----------------|-----------------||
|-3-------------4-|-3-------------4-|-3---------------|-----------------||
|-1-----2-----4-2-|-1-----2-----4-2-|-1---------------|-----------------||
|---0-0-0-0-0-2---|---0-0-0-0-0-2---|---0-0-0-0-0-0-0-|-0-0-0-0-0-0-x\--||

|-----------------|-----------------|-----------------|-----------------|
|-----------------|-----------------|-----------------|-----------------|
|-----------------|-----------------|-----------------|-----------------|
|-----------------|-----------------|-----------------|-----------------|
|-3-2-2-2-2-2-2-2-|-3-2-2-2-2-2-2-2-|-3-2-2-2-2-2-2-2-|-3-2-2-3-2-2-3---|
|-1-0-0-0-0-0-0-0-|-1-0-0-0-0-0-0-0-|-1-0-0-0-0-0-0-0-|-1-0-0-1-0-0-1---|

|-----------------|-----------------|-----------------|-----------------||
|-----------------|-----------------|-----------------|-----------------||
|-----------------|-----------------|-----------------|-----------------||
|-----------------|-----------------|-----------------|-----------------||
|-3-2-2-2-2-2-2-2-|-3-2-2-2-2-2-2-2-|-3-2-2-2-2-2-2-2-|-3-2-2-3-2-2-2---||
|-1-0-0-0-0-0-0-0-|-1-0-0-0-0-0-0-0-|-1-0-0-0-0-0-0-0-|-1-0-0-1-0-0-0---||

|-----------------|-----------------|-----------------|-----------------||
|-----------------|-----------------|-----------------|-----------------||
|-----------------|-----------------|-----------------|-----------------||
|-4---------------|-5---------------|-4---------------|-5---------------||
|-2---------------|-3---3-----------|-2---------------|-3---3-----------||
|-----------------|-----1-----------|-----------------|-----1-----------||

 verse 4
|-----------------|-----------------|-----------------|-----------------|
|-----------------|-----------------|-----------------|-----------------|
|-----------------|-----------------|-----------------|-----------------|
|-----------------|-----------------|-----------------|-----------------|
|-2-2-2-2-2-2-2-2-|-2-2-2-2-3-3-3-4-|-2-2-2-2-2-2-2-2-|-2-2-2-2-3-3-3-4-|
|-0-0-0-0-0-0-0-0-|-0-0-0-0-1-1-1-2-|-0-0-0-0-0-0-0-0-|-0-0-0-0-1-1-1-2-|

|-----------------|-----------------|-----------------|-----------------||
|-----------------|-----------------|-----------------|-----------------||
|-----------------|-----------------|-----------------|-----------------||
|-----------------|-----------------|-----------------|-----------------||
|-2-2-2-2-2-2-2-2-|-2-2-2-2-3-3-3-4-|-2-2-2-2-2-2-2-2-|-2-2-2-2-3-3-3-4-||
|-0-0-0-0-0-0-0-0-|-0-0-0-0-1-1-1-2-|-0-0-0-0-0-0-0-0-|-0-0-0-0-1-1-1-2-||

|-------7---------|-7-----6---------||
|-----5-----5-----|---5-------5-----||
|---4---------4---|-----4-------4---||
|-----------------|-----------------||
|-----------------|-----------------||
|-0---------------|-----------------||
|
|-----------------|-----------------||
|-----------------|-----------------||
|-----------------|-----------------||
|-----------------|-----------------||
|-----------------|-----------------||
|-0---------------|-0---------------||

|-------7---------|-7-----6---------|-------7---------|-7-----6---------|
|-----5-----5-----|---5-------5-----|-----5-----5-----|---5-------5-----|
|---4---------4---|-----4-------4---|---4---------4---|-----4-------4---|
|-----------------|-----------------|-----------------|-----------------|
|-----------------|-----------------|-----------------|-----------------|
|-0---------------|-----------------|-0---------------|-----------------|
|
|-----------------|-----------------|-----------------|-----------------|
|-----------------|-----------------|-----------------|-----------------|
|-----------------|-----------------|-----------------|-----------------|
|-9---------------|(9)--------------|-9---------------|(9)--------------|
|-7---------------|(7)----8---------|-7---------------|(7)----8---------|
|-0---------------|(0)----6---------|-0---------------|(0)----6---------|

|-------7---------|-7-----6---------|-------7---------|-7-----6---------||
|-----5-----5-----|---5-------5-----|-----5-----5-----|---5-------5-----||
|---4---------4---|-----4-------4---|---4---------4---|-----4-------4---||
|-----------------|-----------------|-----------------|-----------------||
|-----------------|-----------------|-----------------|-----------------||
|-0---------------|-----------------|-0---------------|-----------------||
|
|-----------------|-----------------|-----------------|-----------------||
|-----------------|-----------------|-----------------|-----------------||
|-----------------|-----------------|-----------------|-----------------||
|-9---------------|(9)--------------|-9---------------|(9)--------------||
|-7---------------|(7)----8---------|-7---------------|(7)----8---------||
|-0---------------|(0)----6---------|-0---------------|(0)----6---------||

|-----------------|-----------------|-----------------|-----------------|
|-----------------|-----------------|-----------------|-----------------|
|-----------------|-----------------|-----------------|-----------------|
|-9---------------|-----------------|-9---------------|-----------------|
|-7---------------|-8-----8-----8---|-7---------------|-8-----8-----8---|
|-0---------------|-6---0-6---0-6---|-0---------------|-6---0-6---0-6---|

|-----------------|-----------------|-----------------|-----------------||
|-----------------|-----------------|-----------------|-----------------||
|-----------------|-----------------|-----------------|-----------------||
|-9---------------|-----------------|-9---------------|-----------------||
|-7---------------|-8-----8-----8---|-7---------------|-8-----8-----8---||
|-0---------------|-6---0-6---0-6---|-0---------------|-6---0-6---0-6---||

|-----------------|-----------------|-----------------|-----------------|
|-----------------|-----------------|-----------------|-----------------|
|-----------------|-----------------|-----------------|-----------------|
|-----------------|-----------------|-----------------|-----------------|
|-----------------|-----7---5---7---|-2-----2-----2---|-----7---5---7---|
|-000-000-000-000-|-0-----6---6---6-|-0---0-0---0-0---|-0-----6---6---6-|
|
|-----------------|-----------------|-----------------|-----------------|
|-----------------|-----------------|-----------------|-----------------|
|-----------------|-----------------|-----------------|-----------------|
|-----------------|-9-8-7-----------|-----------------|-9-8-7-----------|
|-----------------|---------5---7---|-2-----2-----2---|---------5---7---|
|-000-000-000-000-|-------6---6---6-|-0---0-0---0-0---|-------6---6---6-|

|-----------------|-----------------|-----------------|-----------------||
|-----------------|-----------------|-----------------|-----------------||
|-----------------|-----------------|-----------------|-----------------||
|-----------------|-----------------|-----------------|-----------------||
|-----------------|-----7---5---7---|-----------------|-----7---5---7---||
|-000-000-000-000-|-0-----6---6---6-|-0-0-0-0-0-0-0-0-|-0-----6---6---6-||
|
|-----------------|-----------------|-----------------|-----------------||
|-----------------|-----------------|-----------------|-----------------||
|-----------------|-----------------|-----------------|-----------------||
|-----------------|-9-8-7-----------|-----------------|-9-8-7-----------||
|-----------------|---------5---7---|-----------------|---------5---7---||
|-000-000-000-000-|-------6---6---6-|-0-0-0-0-0-0-0-0-|-------6---6---6-||

|-----------------|-----------------|-----------------|-----------------|
|-----------------|-----------------|-----------------|-----------------|
|-----------------|-----------------|-----------------|-----------------|
|-----------------|-----------------|-----------------|-----------------|
|-----------------|---6-5-4-5-4---3-|-----------------|---6-5-4-5-4---3-|
|-000-000-000-000-|-554-3-2-3-2-0-1-|-000-000-000-000-|-554-3-2-3-2-0-1-|

|-----------------|-----------------|-----------------|-----------------||
|-----------------|-----------------|-----------------|-----------------||
|-----------------|-----------------|-----------------|-----------------||
|-----------------|-----------------|-----------------|-----------------||
|-----------------|---6-5-4-5-4---3-|-----------------|---6-5-4-5-4---3-||
|-000-000-000-000-|-554-3-2-3-2-0-1-|-000-000-000-000-|-554-3-2-3-2-0-1-||

 verse 5
|-----------------|-----------------|-----------------|-----------------|
|-----------------|-----------------|-----------------|-----------------|
|-----------------|-----------------|-----------------|-----------------|
|-----------------|-----------------|-----------------|-----------------|
|---2-------2-----|---6-5-4-5-4---3-|---2-------2-----|---6-5-4-5-4---3-|
|-0-0---0-0-0---0-|-554-3-2-3-2-0-1-|-0-0---0-0-0---0-|-554-3-2-3-2-0-1-|

|-----------------|-----------------|-----------------|-----------------||
|-----------------|-----------------|-----------------|-----------------||
|-----------------|-----------------|-----------------|-----------------||
|-----------------|-----------------|-----------------|-----------------||
|---2-------2-----|---6-5-4-5-4---3-|---2-------2-----|---6-5-4-5-4---3-||
|-0-0---0-0-0---0-|-554-3-2-3-2-0-1-|-0-0---0-0-0---0-|-554-3-2-3-2-0-1-||

                  free time                           in time
|-----------------|-----------------|-----------------|-----------------||
|-----------------|-----------------|-----------------|-----------------||
|-----------------|-----------------|-----------------|-----------------||
|-----------------|-----------------|-----------------|-----------------||
|-4-------2--5--4-|-3---------------|(3)--------------|-3-----3-6-------||
|-2-------0--3--2-|-1---------------|(1)--------------|-1-----1-4-------||
          {  3  }

|-----------------|-----------------|-18------18------|-18------18------|
|-----------------|----------------x|--------x-------x|--------x--------|
|-----------------|---------------x-|-------x-------x-|-------x---------|
|-----------------|--------------x--|------x-------x--|------x----------|
|-----------------|-----------------|-----------------|-----------------|
|-0---------------|(0)--------------|-----------------|-----------------|
|  trem. bar--------------------|
|-----------------|-----------------|-----------------|-----------------|
|-----------------|-----------------|-----------------|-----------------|
|-----------------|-----------------|-----------------|-----------------|
|-----------------|-----------------|-----------------|-----------------|
|-----------------|-----------------|-----------------|-----------------|
|-0---------------|(0)--------------|-0---------------|(0)--------------|

 w/pick scrapes
|-----------------|-----------------|-----------------|-----------------|
|-----------------|-----------------|-----------------|-----------------|
|-----------------|-----------------|-----------------|-----------------|
|-----------------|-----------------|-----------------|-----------------|
|-----------------|-----------------|-----------------|-----------------|
|-0---------------|(0)--------------|-0---------------|(0)--------------|

|-----------------|-----------------|-----------------|-----------------|
|-----------------|-----------------|-----------------|-----------------|
|-----------------|-----------------|-----------------|-----------------|
|-----------------|-----------------|-----------------|-----------------|
|-----------------|-----------------|-----------------|-----------------|
|-0---------------|(0)--------------|-0---------------|(0)--------------|

|-----------------|-----------------|-----------------|-----------------|
|-----------------|-----------------|-----------------|-----------------|
|-8---------------|(8)-----\--------|-----------------|-----------------|
|-----------------|---------4-------|-3---------------|(3)--------------|
|-6---------------|(6)-----\--------|-----------------|-----------------|
|-----------------|---------2-------|-1---------------|(1)--------------|
|
|-----------------|-----------------|-----------------|-----------------|
|-----------------|-----------------|-----------------|-----------------|
|-----------------|-----------------|-----------------|-----------------|
|-----------------|-----------------|-----------------|-----------------|
|-----------------|-----------------|-----------------|-----------------|
|-0---------------|(0)--------------|-0---------------|(0)--------------|

|-----------------|-----------------|-----------------|-----------------|
|-----------------|-----------------|-----------------|-----------------|
|-8---------------|(8)-----\--------|-----------------|-----------------|
|-----------------|---------4-------|-3---------------|-----------------|
|-6---------------|(6)-----\--------|-----------------|-----------------|
|-----------------|---------2-------|-1---------------|-0\--------------|
|                                                       trem bar
|-----------------|-----------------|-----------------|-----------------|
|-----------------|-----------------|-----------------|-----------------|
|-----------------|-----------------|-----------------|-----------------|
|-----------------|-----------------|-----------------|-----------------|
|-----------------|-----------------|-----------------|-----------------|
|-0---------------|(0)--------------|-0---------------|(0)--------------|

|-----------------|-----------------|-----------------|-----------------|
|-----------------|-----------------|-----------------|-----------------|
|-----------------|-----------------|-----------------|-----------------|
|-----------------|-----------------|-----------------|-----------------|
|-----------------|-----------------|-----------------|-----------------|
|(0\)-------------|(0\)-------------|(0\)-------------|(0\)-------------|
|
|-----------------|-----------------|-----------------|-----------------|
|-----------------|-----------------|-----------------|-----------------|
|-----------------|-----------------|-----------------|-----------------|
|-----------------|-----------------|-----------------|-----------------|
|-----------------|-----------------|-----------------|-----------------|
|-0---------------|(0)--------------|-0---------------|(0)--------------|

 w/pick scrapes
|-----------------|-----------------|-----------------|-----------------|
|-----------------|-----------------|-----------------|-----------------|
|-----------------|-----------------|-----------------|-----------------|
|-----------------|-----------------|-----------------|-----------------|
|-----------------|-----------------|-----------------|-----------------|
|-0---------------|(0)--------------|-0---------------|(0)--------------|

|-----------------|-----------------|-----------------|-----------------|
|-----------------|-----------------|-----------------|-----------------|
|-----------------|-----------------|-----------------|-----------------|
|-----------------|-----------------|-----------------|-----------------|
|-----------------|-----------------|-----------------|-----------------|
|-0---------------|(0)--------------|-0---------------|(0)--------------|

          w/feedback
|-----------------|-----------------|-----------------|-----------------||
|-----------------|-----------------|-----------------|-----------------||
|-----------------|-----------------|-----------------|-----------------||
|-----------------|-----------------|-----------------|-3---------------||
|-----------------|-----------------|-----------------|-3---------------||
|-0---------------|(0)--------------|-0---------------|-1---------------

-great words from the great nick
Comments