Septic Flesh - Magic Loves Infinity Chords & Tabs

 

Magic Loves Infinity Chords & Tabs

Septic Flesh Chords & Tabs

Version: 1 Type: Tab 0 ratings
1 star 2 stars 3 stars 4 stars 5 stars
comments

Magic Loves Infinity Tab

   
Band: Septic Flesh
Song: Magic Loves Infinity
Author of this tab: Klamh S. Negen ( klamh_s_negen@hotmail.com )
From: Guadeloupe ( French West Indies )
The: May, 21st, 2003

Sorry for my poor english.

Any comments please write me.

I wrote this tab on my 7 strings guitar with standard tuning ( EBGDAEB ) but I think it's played on a 6 strings dropped one step down ( DAFCGD ) and it's easy to transcribe it.

This is one of my first tab ( the first in "extreme" metal ) so sorry if it's bad.

I only tab the rythm guitar because there are very strange effects on the lead one and it's too dificult for me.

I don't know if the melody in the verse is played by a keyboard or a guitar but there is someone who plays keys in the band so I suppose it would be him who make this part.


Riff 1

E ----------------------------------
B ----------------------------------
G ----------------------------------
D ---------2---3---6----------------
A -5-------2---3---6----------------
E -5-------0---1---4----------------
B -3--------------------------------


Verse Riff ( I'm not sure but it sounds correct )

E ------------------------------------------------
B ------------------------------------------------
G -12---------------------------------------------
D ----13-15-13-12-13-15-13-12-13-15-13-12-13-15-13
A ------------------------------------------------
E ------------------------------------------------
B ------------------------------------------------

Riff 2
[ Tab from: http://www.guitartabs.cc/tabs/s/septic_flesh/magic_loves_infinity_tab.html ]
E ------------------------------------------------------------------
B ------------------------------------------------------------------
G ------------------------------------------------------------------
D -7-7-7-7-7-7-7-7-8-8-8-8-8-1010105-5-5-5-5-5-5-5-5-5-5-5-5-5-5-5-5
A -7-7-7-7-7-7-7-7-8-8-8-8-8-1010105-5-5-5-5-5-5-5-5-5-5-5-5-5-5-5-5
E -5-5-5-5-5-5-5-5-6-6-6-6-6-8-8-8-3-3-3-3-3-3-3-3-3-3-3-3-3-3-3-3-3
B ------------------------------------------------------------------

with some random "arp├Ęges" ( sorry I don't know the english word maybe arpegios ) on the last notes probably like that 

E -------------------------------------------------------------------
B -------------------------------------------------------------------
G ---------------------------------------5-------5-------5-------5---
D -7-7-7-7-7-7-7-7-8-8-8-8-8-1010105-5-5---5-5-5---5-5-5---5-5-5---5-
A -7-7-7-7-7-7-7-7-8-8-8-8-8-1010105-5-5-----5-5-----5-5-----5-5-----
E -5-5-5-5-5-5-5-5-6-6-6-6-6-8-8-8-3-3-3-----3-3-----3-3-----3-3-----
B -------------------------------------------------------------------


Riff 3

E ------------------------------------------------
B ------------------------------------------------
G ------------------------------------------------
D -6-6-6-6-6-6-6-6-6-8-8-8-3-3-3-3-3-3-3-3-3-5-5-5
A -6-6-6-6-6-6-6-6-6-8-8-8-3-3-3-3-3-3-3-3-3-5-5-5
E -4-4-4-4-4-4-4-4-4-6-6-6-1-1-1-1-1-1-1-1-1-3-3-3
B ------------------------------------------------


Riff 3 bis

E ------------------------------------------------
B ------------------------------------------------
G -------------------------------------------5-5-5
D -6-6-6-6-6-6-6-6-6-8-8-8-3-3-3-3-3-3-3-3-3-5-5-5
A -6-6-6-6-6-6-6-6-6-8-8-8-3-3-3-3-3-3-3-3-3-3-3-3
E -4-4-4-4-4-4-4-4-4-6-6-6-1-1-1-1-1-1-1-1-1------
B ------------------------------------------------


Riff 3 ter

E ---------------------------------------------
B ---------------------------------------------
G -------------------------------------------5- ( block the string )
D -6-6-6-6-6-6-6-6-6-8-8-8-3-3-3-3-3-3-3-3-3-5- ( block the string )
A -6-6-6-6-6-6-6-6-6-8-8-8-3-3-3-3-3-3-3-3-3-3- ( block the string )
E -4-4-4-4-4-4-4-4-4-6-6-6-1-1-1-1-1-1-1-1-1---
B ---------------------------------------------



Order:

Riff 1 x4
Verse Riff x4
Riff 2 x2
Verse Riff x4
Riff 3 x3
Riff 3 bis x1
Riff 1 x2
Riff 2 x2
Riff 3 x3
Riff 3 ter x1
Riff 3 x3
Riff 3 ter x1



Comments