Septic Flesh - Geometry In Static Chords & Tabs

 

Geometry In Static Chords & Tabs

Septic Flesh Chords & Tabs

Version: 1 Type: Tab 0 ratings
1 star 2 stars 3 stars 4 stars 5 stars
comments

Geometry In Static Tab

                                Geometry in Static

        From the album The Ophidian Wheel - by the mighty SEPTIC FLESH.
        Holy Records 1997.

Transcribed and tabbed by Pierre "Boz" SARDA on a sad night of July 1998
Version 1.1

comments:

It s quite perfect. Lack some harmonies here and there cause too difficult to
ear under 2 guitars and 2 voices:) there a big mistake in Riff 6. If someone
could catch it, that would be cool:). The solo... well let me progress a bit
more in guitar then i ll do it;)
Any comments: boz@mygale.org or write to Rich where you ve found the tab:)

 Riff 1

||---------------------------------|
||---------------------------------|
||---------------------------------|
||----9--7-5--7--------9--7-5--4-4-|
||-2--7--5-3--5-----2--7--5-3--2-2-|
||-0------------3\--0--------------|

Repeat Riff 1

 Riff 2

||-------------------------------------------------------|
||-------------------------------------------------------|
||-------------------------------------------------------| Guit 1&2
||-------------------------------------------------------|
||-------------------------------------------------------|
||-00000000000000000666655556666555566665555666888666555-|

Repeat 8 times

 Riff 3

||---------------------------------|
||---------------------------------|
||---------------------------------|
||---------------2-----------------|
||-2------2--2---2------4444-------|
||-0------0--0---0------2222-------|
||
||---------------------------------|
||---------------------------------|
||----9---11-----12---11-9---------|
||--7---7----7/9-----9--9--12-10-9-|
||---------------------------------|
||---------------------------------|

||---------------------------------|
||---------------------------------|
||---------------------------------|
||---------------2-----------------|
||-2------2--2---2------4444-------|
||-0------0--0---0------2222-------|
||
||---------------------------------|
||---------------------------------|
||----9---11------12--11-9---------|
||--9---9----9/10---10-10--12-10-9-|
||---------------------------------|
||---------------------------------|

Repeat 2 times

Then:

 Riff 4

||-------------------------------------------------------------------------------------|
||-------------------------------------------------------------------------------------|
||-------------------------------------------------------------------------------------|
||-------------------------------------------------------------------------------------|
||-----------------------------3-3-3-3-3-3-3-------------------------------------------|
||-3-3-3-3-3-3-3-4-4-4-4-4-4-4---------------4-4-4-4-4-4-4-1-1-1-1-1-1-1-3-3-3-3-3-3-3-|
||
||-------------------------------------------------------------------------------------|
||-------------------------------------------------------------------------------------|
||------------------------------8-------------8----------------------------------------|
||-9--------------9---------------10------------10---------12------------12------------|
||---10-------------10---------------10------------11---------14------------14---------|
||------10-------------11----------------------------------------13------------15------|

[ Tab from: http://www.guitartabs.cc/tabs/s/septic_flesh/geometry_in_static_tab.html ]
||---------------------------------------------------------|
||---------------------------------------------------------|
||---------------------------------------------------------|
||---------------------------------------------------------|
||-3-3-3-3-3-3-3-------------------------------------------|
||---------------4-4-4-4-4-4-4-1-1-1-1-1-1-1-3-3-3-3-3-3-3-|
||
||---------------------------------------------------------|
||---------------------------------------------------------|
||--8-------------8----------------------------------------|
||----10------------10---------12------------12------------|
||-------10------------11---------14------------14---------|
||-----------------------------------13------------15------|

 Riff 5

||-------------------------------------------------------------------|
||-------------------------------------------------------------------|
||-5------------3----------------------------------------------------|
||-5------------3------------3------6--------------------------------|
||-3------------1------------3------6--------------------------------|
||---------------------------1------4--------------------------------|
||
||-------------------------------------------------------------------|
||---------------6---------------------------------------------------|
||-5--7-8--5-7-8---8-7--7-8-7-5---5-7-8------------------------------|
||------------------------------8------------------------------------|
||-------------------------------------------------------------------|
||-------------------------------------------------------------------|
||
||-------------------------------------------------------------------|
||-------------------------------------------------------------------|
||--5-----5-------------55---5---------------------------------------|
||----5-----5-8--5--5-8----8-----------------------------------------| Guit 3 only 3rd and
||-------------------------------------------------------------------| 4th time. Listen to
||-------------------------------------------------------------------| CD for timing.

repeat Riff 5 4 times

 Riff 6

||-------------------------------------------------------|
||-------------------------------------------------------|
||-------------------------------------------------------|
||-----------------------------5--5--5--5----------6-6---|
||-2---2---2---22----2---2---2-3--3--3--3-3----3---4-4---|
||-0---0---0---00----0---0---0------------1----1---------|
||
||-7-5---------------7-5-------5-7---------5-8-7-5-4t(5)-|
||-----8-7t(8)-5---5-----8-7-8-----8-7-5-----------------|
||---------------8-----------------------8---------------|
||-------------------------------------------------------|
||-------------------------------------------------------|
||-------------------------------------------------------|

repeat 4 times with a slight rythm change during the 2 last ones (listen to record!)

Riff 7

||-------------------------------------------------------------------|
||-------------------------------------------------------------------|
||-------------------------------------------------------------------|
||-6-----3------6------3-------7-------3-------7-------3-------------|
||-4-----1------4------1-------5-------1-------5-------1-------------|
||-------------------------------------------------------------------|
||
||-4t(5)-1t(3)--4t(5)-1t(3)----5t(6)-1t(3)-----5t(6)-1t(3)-----------|
||-------------------------------------------------------------------|
||-------------------------------------------------------------------|
||-------------------------------------------------------------------|
||-------------------------------------------------------------------|
||-------------------------------------------------------------------|

Repeat Riff 2 6 times

Repeat Riff 3

Repeat Riff 4 during solo

Repeat Riff 5 Riff 6 and riff 7
Comments