Septic Flesh - Brotherhood Of The Fallen Knights Chords & Tabs

 

Brotherhood Of The Fallen Knights Chords & Tabs

Septic Flesh Chords & Tabs

Version: 1 Type: Tab 0 ratings
1 star 2 stars 3 stars 4 stars 5 stars
comments

Brotherhood Of The Fallen Knights Tab

SEPTIC FLESH- BROTHERHOOD OF THE FALLEN KNIGHTS
>From the Album A FALLEN TEMPLE
Copyright 1997 Eclipse Music
Transribed by : Cole Farnum (cfarnum@exeter.eu)

        This is one of my favorite songs.  I did only the lead guitars, 
so corrections and possibly a rythmn tab by others are cool.

Tuning: Normal

Small intro 00:33-00:38
|-------------------|
|-------------4568--|
|-354545454543------|
|-------------------|
|-------------------|
|-0-0-0-0-0-0-0-----|  

00:37-00:43
|-----------------------------------------------------------|
|-----------------------------------------------------------|
|-----------------------------------------------------------|
|-----------------------------------------------------------|
|-111-----111--111-----111--111-----------------------------|
|----0-0-0---00---0-0-0---00---0-0-0-0-0-0-3-3-3-33-3-3-3-3-|

Can be played lower- i think this is right
00:50-01:15
|--------------------------------------
|--------------------------------------
|--------------------------------------
|-9-77------77----------------88-------
|-------5-8-----55-8--7-5-0---66-------
|--------------------------------------

--------------------------------------|
---77------77-----------97--------5---|
-9-----5-8-----5-8--10-----5-75454----|
--------------------------------------|
--------------------------------------|
--------------------------------------|
[ Tab from: http://www.guitartabs.cc/tabs/s/septic_flesh/brotherhood_of_the_fallen_knights_tab.html ]
01:16-01:31
|----------------------------------------------------- 
|-1010-13131313-13--151515/14-141414/13-12121112--1111
|-----------------------------------------------------
|-----------------------------------------------------
|-----------------------------------------------------
|-----------------------------------------------------

---------------------------------------------------------------|
-1010-13131313-13--151515/14-141414/13-12121112-11-1011-12-11--|
-------------------------------------------------------------99|
---------------------------------------------------------------|
---------------------------------------------------------------|
---------------------------------------------------------------|
Very rough- 2nd and 3rd time variation on end
01:43-01:56
|--------------------------------------|
|-7976-66---8-8-7976-------------------|
|--------6-9---------666-5-5-----------|
|--------------------------------------|
|--------------------------------------|
|--------------------------------------|

02:47-03:12
|--------------------------------------|
|--------------------------------------|
|-7--7--5--10--7--7--5-----------------|
|--------------------------------------|
|--------------------------------------|
|--------------------------------------|
variation
|--------------------------------------|
|--------------------------------------|
|-7--7--5--10--7--7--5--3--------------|
|--------------------------------------|
|--------------------------------------|
|--------------------------------------|

The construction is pretty easy to figure out.
Nothing’s missing and the variations are very
small.  Enjoy and hail Septic Flesh!
Comments