Sentenced - Let Go Chords & Tabs

 

Let Go Chords & Tabs

Sentenced Chords & Tabs

Version: 3 Type: Tab 0 ratings
1 star 2 stars 3 stars 4 stars 5 stars
comments

Let Go Tab

   
Sentenced: Let go (The Last Chapter) solo
Tabbed by HeXa(HeXa24@hotmail.com) 13.9.1999

This is full of mistakes but this is the best I can do...just let me know if
somebody knows better tabs...
[ Tab from: http://www.guitartabs.cc/tabs/s/sentenced/let_go_tab_ver_3.html ]
Tune Down to D (DGCFAD)
              
|-hold-----------------------------------------------------------------------|
|-17~-----17-17-17-16-16-16---------14-17b19r17-14---------------------------|
|-16~(18)-16-16-16-16-16-16-14~--14----------------16b18r-14--16-14p16h14-13-|
|----------------------------------------------------------------------------|
|----------------------------------------------------------------------------|
|----------------------------------------------------------------------------|
                          A.H
|----------------------------------------------------------------------------|
|-------------------------15-------------------------------------------------|
|-14-13p14h13-------------------6-7-9-7-6--6-7----6--------------------------|
|--------------16-14-12------------------------9----9-7--9-7-6---------------|
|--------------------------------------------------------------9-------------|
|----------------------------------------------------------------------------|
 T        T        T        T        T        T        T        T
|21p17p14-21p17p14-21p17p14-21p17p14-22p17p14-22p17p14-22p17p14-22p17p14-----|
|----------------------------------------------------------------------------|
|----------------------------------------------------------------------------|
|----------------------------------------------------------------------------|
|----------------------------------------------------------------------------|
|----------------------------------------------------------------------------|
  T        T        T        T        T        T        T        T
|----------------------------------------------------------------------------|
|-21p17p14-21p17p14-21p17p14-21p17p14-22p17p14-22p17p14-22p17p14-22p17p14----|
|----------------------------------------------------------------------------|
|----------------------------------------------------------------------------|
|----------------------------------------------------------------------------|
|----------------------------------------------------------------------------|

|----------------------------------------------------------------------------|
|-15-14----------14-15-17-15-14-15--15-14-----14-----------------------------|
|-------16-14-16--------------------------16-----16-14--16-14-13-------------|
|----------------------------------------------------------------14/16-------|
|----------------------------------------------------------------------------|
|----------------------------------------------------------------------------|

|----------------------------------------------------------------------------|
|----------------------------------------------------------------------------|
|-14p11p13p11---14p11p13p11----14p11p13p11----14p11p13p11------16b18r16-14-13|
|------------14-------------14-------------14-------------14-----------------|
|----------------------------------------------------------------------------|
|----------------------------------------------------------------------------|
                  A.H
|----------------------------------------------------------------------------|
|-----------------15---------------------------------------------------------|
|-14-13----------------------------------------------------------------------|
|-------16-14-12-------------------------------------------------------------|
|----------------------------------------------------------------------------|
|----------------------------------------------------------------------------|
Comments