Sentenced - Blood And Tears Chords & Tabs

 

Blood And Tears Chords & Tabs

Sentenced Chords & Tabs

Version: 1 Type: Tab 0 ratings
1 star 2 stars 3 stars 4 stars 5 stars
comments

Blood And Tears Tab

i took this tab from other page as it wasnt here, its not mine


intro:
   _________________________________________________________________
  /1.3.                     /2.              /4.                   /
d|-------------------------|----------------|----------------------|
A|-------------------------|----------------|----------------------|
F|--11-10-8----10-8--------|--------8-------|-------8--------------|
C|----------11------11-8-9-|--9-8-9---9-8-8-|-9-8-9---11-9-11-9-8--|
G|-------------------------|----------------|----------------------|
D|-------------------------|----------------|----------------------|



riff 1:
d|-------------------------|
A|-------------------------|
F|--6-6--6-4-6--8--8--8-8--|
C|--6-6--6-4-6--8--8--8-8--|
G|--4-4--4-2-4--6--6--6-6--|
D|-------------------------|



riff 2:
d|---------------------------------------------------------------------------------|
A|11-10-----10-8-10-11-10-8---------11-10---------10-8-10-11-10-8------------------|
F|------11b-----------------11b-9-8-------11b-9-8-----------------11b-9-8--9-8-9-11|gtr
C|---------------------------------------------------------------------------------| I
G|---------------------------------------------------------------------------------|
D|---------------------------------------------------------------------------------|
 |										   |
d|---------------------------------------------------------------------------------|
A|---------------------------------------------------------------------------------|
F|-6-----4---6---------------8-------6-----4-------6---------------8---------------|gtr
C|-6-----4---6---------------8-------6-----4-------6---------------8---------------| II
G|-4-----2---4---------------6-------4-----2-------4---------------6---------------|
D|---------------------------------------------------------------------------------|


[ Tab from: http://www.guitartabs.cc/tabs/s/sentenced/blood_and_tears_tab.html ]
chorus:
d|-----------------------------------------|
A|-----------------------------------------|
F|--11-10-8----10-8----------------8-------| gtr
C|----------11------11-8-9---9-8-9---9-8-8-|  I
G|-----------------------------------------|
D|-----------------------------------------|
 |					   |
d|-----------------------------------------|
A|-----------------------------------------|
F|---6-------4-----------6-------------8---| gtr
C|---6-------4-----------6-------------8---|  II
G|---4-------2-----------4-------------6---|
D|-----------------------------------------|

d|-----------------------------------------------|
A|-----------------------------------------------|
F|--11-10-8----10-8---------------8--------------| gtr
C|----------11------11-8-9--9-8-9---11-9-11-9-8--|  I
G|-----------------------------------------------|
D|-----------------------------------------------|
 |						 |
d|-----------------------------------------------|
A|-----------------------------------------------|
F|---6-------4-----------6-------------8---------| gtr
C|---6-------4-----------6-------------8---------|  II
G|---4-------2-----------4-------------6---------|
D|-----------------------------------------------|

d|-----------------------------------------|
A|-----------------------------------------|
F|--11-10-8----10-8----------------8-------| gtr
C|----------11------11-8-9---9-8-9---9-8-8-|  I
G|-----------------------------------------|
D|-----------------------------------------|
 |					   |
d|-----------------------------------------|
A|-----------------------------------------|
F|---6-------4-----------6-------------8---| gtr
C|---6-------4-----------6-------------8---|  II
G|---4-------2-----------4-------------6---|
D|-----------------------------------------|



riff 3:
d|-------------------------------|
A|-------------------------------|
F|--6-8--6-6--6-4-6--8--8--8--6--|
C|--6-8--6-6--6-4-6--8--8--8--6--|
G|--4-6--4-4--4-2-2--6--6--6--4--|
D|-------------------------------|




song structure:
		intro
		riff 1
		riff 2
		riff 1
		intro x2
		chorus
		riff 1
		intro x2
		chorus
		riff 1
		riff 3
		intro (very hard palm muted)
		intro
		chorus
		riff 1
		riff 2
		riff 1
		riff 3
Comments