Senses Fail - Tie Her Down Chords & Tabs

 

Tie Her Down Chords & Tabs

Senses Fail Chords & Tabs

Version: 1 Type: Tab 0 ratings
1 star 2 stars 3 stars 4 stars 5 stars
comments

Tie Her Down Tab

   
TABBED BY:J DIZZLE
The guitarists are Garret Zablocki(Lead guitar)Guitar 1)and Dave Miller(Rythym guitar)Guitar 2).

DROP D TUNING----DADGBE low to high

Intro (Both guitars)
E|-----------------------------------------------------------|
B|-----------------------------------------------------------|
G|-----------------------------------------------------------|
D|12-12-12-12-12-12-12-7-7-7-7-7-7-7-5-5-5-5-5-5-5-----------|
A|9--9--9--9--9--9--9--0-0-0-0-0-0-0-5-5-5-5-5-5-5-0-4h5h4-0-|
D|9--9--9--9--9--9--9--0-0-0-0-0-0-0-5-5-5-5-5-5-5-0-4h5h4-0-| X2

VERSE
Guitar 2 same as intro

Guitar 1
E|-------------------------------------------------------------------|
B|-10-------10-------10----------------------------------------------|
G|-------------------------12-------12-------12----11-------11-------|
D|----12-12----12-12----12----12-12----12-12----12----12-12----12-12-|
A|-------------------------------------------------------------------|
D|-------------------------------------------------------------------|

E|-------------------------|
B|-------------------------|
G|-------------------------|
D|-11----11----11-12-11----|
A|----12----12----------12-|
D|-------------------------| X2

PRE-CHORUS
Guitar 1 
E|-----------------------------------------------------------------|
B|-----------------------------------------------------------------|
G|-7-7-7-7-7-7-7-7-7-7-7-7-9-9-9-9-7-7-7-7-7-7-7-7-7-7-7-7-9-9-9-9-|
D|-x-x-x-x-x-x-x-x-x-x-x-x-x-x-x-x-x-x-x-x-x-x-x-x-x-x-x-x-x-x-x-x-|
A|-5-5-5-5-5-5-5-5-5-5-5-5-7-7-7-7-5-5-5-5-5-5-5-5-5-5-5-5-7-7-7-7-|
D|-----------------------------------------------------------------|

E|-----------------------------------|
B|-----------------------------------|
G|-7-7-7-7-7-7-7-7-7-7-7-7-9-9-9-9-7-|
D|-x-x-x-x-x-x-x-x-x-x-x-x-x-x-x-x-x-|
A|-5-5-5-5-5-5-5-5-5-5-5-5-7-7-7-7-5-|
D|-----------------------------------|

Guitar 2
E|----------------------------|
B|----------------------------|
G|----------------------------|
D|22---22---44---55---55------| X2
A|22---22---44---55---55------|
D|22---22---44---55---55------|

YOURE WORTH MORE DEAD!!!

CHORUS

Guitar 1
E|---------------------------------------------|
B|---------------------------------------------|
G|-12-12-12-12-12-12-11-11-11-11-11-11-7-7-7-7-|
D|-x--x--x--x--x--x--x--x--x--x--x--x--x-x-x-x-|
A|-10-10-10-10-10-10-9--9--9--9--9--9--5-5-5-5-| X8
D|---------------------------------------------|
[ Tab from: http://www.guitartabs.cc/tabs/s/senses_fail/tie_her_down_tab.html ]
Guitar 2
E|-------------------------------------------------------------------|
B|-------------------------------------------------------------------|
G|-------------------------------------------------------------------|
D|-9999999999999999999999999999999-0-5555555555555555555555555555555-|
A|-9999999999999999999999999999999-0-5555555555555555555555555555555-|
D|-9999999999999999999999999999999-0-5555555555555555555555555555555-|

VERSE 2 Same as verse 1

CHORUS

AFTER ALL THAT...

(No Vocals)

Guitar 1

E|-----------------------------------------------------------------------| 
B|10-----10-----10----10-------10-------10-------------------------------| 
G|--------------------------------------------12----12-12----12-12-------|
D|--12-12--12-12---12----12-12----12-12----12----12-------12-------12----|
A|-----------------------------------------------------------------------|
D|-----------------------------------------------------------------------|

E|-------------------------------------------------------------------------|
B|-------------------------------------------------------------------------|
G|-------------------------10-------10-------10----10-------10-------10----|
D|-12----12-12----12-12----------------------------------------------------|
A|----12-------12-------12----12-12----12-12----12----12-12----12-12----12-|
D|-------------------------------------------------------------------------|

E|----------------------------------------|
B|----------------------------------------|
G|----------------------------------------|
D|-12-------12-------12----11h12-11h12-11-|
A|----12-12----12-12----12----------------|
D|----------------------------------------|

Guitar 2

E|---------------------------------------------------|
B|---------------------------------------------------|
G|---------------------------------------------------|
D|-0~-----------4~-----------9~-----------5~---------|
A|-0~-----------4~-----------9~-----------5~---------|
D|-0~-----------4~-----------9~-----------5~---------|

Outro
Both Guitars
E|----------------------------------------------------------------|
B|----------------------------------------------------------------|
G|----------------------------------------------------------------|
D|-0-0-0-0-0-0-0-0---0-0-0-0-0-0-0-4-4-4-4-4-4-4-4--4-4-4-4-4-4-4-|
A|-0-0-0-0-0-0-0-0---0-0-0-0-0-0-0-4-4-4-4-4-4-4-4--4-4-4-4-4-4-4-|
D|-0-0-0-0-0-0-0-0---0-0-0-0-0-0-0-4-4-4-4-4-4-4-4--4-4-4-4-4-4-4-|

E|----------------------------------------------------------------|
B|----------------------------------------------------------------|
G|----------------------------------------------------------------|
D|-9-9-9-9-9-9-9-9-9-9-9-9-9-9-9-9-5-5-5-5-5-5-5-5-5--5-5-5-5-5-5-|
A|-9-9-9-9-9-9-9-9-9-9-9-9-9-9-9-9-5-5-5-5-5-5-5-5-5--5-5-5-5-5-5-|
D|-9-9-9-9-9-9-9-9-9-9-9-9-9-9-9-9-5-5-5-5-5-5-5-5-5--5-5-5-5-5-5-| X3

End on
E|----|
B|----|
G|----|
D|-0~-|
A|-0~-|
D|-0~-|
Comments