Senses Fail - Tie Her Down Chords & Tabs

 

Tie Her Down Chords & Tabs

Senses Fail Chords & Tabs

Version: 1 Type: Bass Tab 0 ratings
1 star 2 stars 3 stars 4 stars 5 stars
comments

Tie Her Down Bass Tab

Hey. Tie her down is another easy song(i tabbed lady in a blue dress ver 3). But im 
do a bass tab today. Reminder this is in drop d. rock out

 Intro( And im postive the about this intro)
G---------------------------------------------------------|
D---------------------------------------------------------|
A---------------------------------------------------------|
D-999999-444444-555555--04h54h0---------------------------|


G--------------------------------------------------------|
D--------------------------------------------------------|
A--------------------------------------------------------|
D-999999-444444-555555--04h54h0--------------------------|


Verse( Slightly different)

G----------------------------------------------------------|
D----------------------------------------------------------|
A----------------------------------------------------------|
D--8h999-7-7-77-5-555--04h5h40-----------------------------|


Pre Chorus

G------------------------------------------------------|
D------------------------------------------------------|
A------------------------------------------------------|
D-22-22-4-55-55--12/-22-22-4-55-(8 beat break)---------|

Chorus


G---------------------------------------------------------|
D-------------------------------5555----------------------|
A---------------------------------------------------------|
D-9999999999999999-555555555555---------------------------|
[ Tab from: http://www.guitartabs.cc/tabs/s/senses_fail/tie_her_down_btab.html ]
G---------------------------------------------------------|
D-------------------------------5555----------------------|
A---------------------------------------------------------|
E-9999999999999999-555555555555---------------------------|


Bridge

G---------------------------------------------------------|
D---------------------------------------------------------|
A---------------------------------------------------------|
D-0-~--------5~-------9~--------5~------------------------|

(Start to pick up the pase a wee bit)
G---------------------------------------------------------|
D---------------------------------------------------------|
A---------------------------------------------------------|
D-0000000--5555555---9999999---5555555--------------------|


(Super Heavy Part)

G--------------------------------------------------------------------|
D--------------------------------------------------------------------|
A--------------------------------------------------------------------|
D-0-0-0-0-0--0-0-0--5-5-5-5-5--5-5-5--9-9-9-9-9-9-9---5-5-5-5-5-5----|


Outro


G--------------------------------------------------------------------|
D--------------------------------------------------------------------|
A--------------------------------------------------------------------|
D-0~-----------------------------------------------------------------|


Great song, great band, easy , good stuff for begginers. I highly reccomend, you playing 
song with a pick, for the bridge, cause its chuncky as hell. Anyway i got this one on 
money. please rate. thanks
Comments