Senses Fail - The Ground Folds Chords & Tabs

 

The Ground Folds Chords & Tabs

Senses Fail Chords & Tabs

Version: 2 Type: Tab 1 rating
1 star 2 stars 3 stars 4 stars 5 stars
comments

The Ground Folds Tab

Artist: Semses Fail
Song: The Gounds Folds
Tabbed by: Kyle Woodward

Drop D (DADGBE)

Intro x 2
e--------------10------------------------10-----
B-------11-----------------11------11-----------
G-12-12----12-----12-12-12----12-12---12--12-12-
D-----------------------------------------------
A-----------------------------------------------
D-----------------------------------------------

e--------------13------------------------13-----
B-------11-----------------11------11-----------
G-10-10----10-----10-10-10----10-10---10--10-10-
D-----------------------------------------------
A-----------------------------------------------
D-----------------------------------------------

2nd Intro x2

e-----------------------------------------------
B-----------------------------------------------
G-----------------------------------------------
D-5-5-5-5-5-5-5--5-5-5-5-5-5-5------------------
A-5-5-5-5-5-5-5--5-5-5-5-5-5-5------------------
D-5-5-5-5-5-5-5--5-5-5-5-5-5-5------------------

e--------------13------------------------13-----
B-------11-----------------11------11-----------
G-10-10----10-----10-10-10----10-10---10--10-10-
D-----------------------------------------------
A-----------------------------------------------
D-----------------------------------------------

Main Riffx2-Open
e-----------------------------------------------
B-----------------------------------------------
G-----------------------------------------------
D-5555555--5555555--111111--1111111-------------
A-5555555--5555555--111111--1111111-------------
D-5555555--5555555--111111--1111111-------------

Versex2-Palm Muted
e-----------------------------------------------
B-----------------------------------------------
G-----------------------------------------------
D-75555555555555--3111111111111-----------------
A-55555555555555--1111111111111-----------------
D-55555555555555--1111111111111-----------------
[ Tab from: http://www.guitartabs.cc/tabs/s/senses_fail/the_ground_folds_tab_ver_2.html ]
Pre Chorus 1 x2-Open
e-----------------------------------------------
B-----------------------------------------------
G-----------------------------------------------
D-77777777777777--3333333333333-----------------
A-55555555555555--1111111111111-----------------
D-55555555555555--1111111111111-----------------

Pre Chorus 2 x2

e-----------------------------------------------
B-----------------------------------------------
G-----------------------------------------------
D-0000000-1111111-------------------------------
A-0000000-1111111-------------------------------
D-0000000-1111111-------------------------------

Chorus x2
e-----------------------------------------------
B-----------------------------------------------
G-----------------------------------------------
D--5555555555-888888888-1111111111-00000-11111--
A--5555555555-888888888-1111111111-00000-11111--
D--5555555555-888888888-1111111111-00000-11111--
"This song I wrote....."	  (PM........)	

Verse x2

Pre Chorus 1 x2

Pre Chorus 2 x2

End of Chorus
e-----------------------------------------------
B-----------------------------------------------
G-----------------------------------------------
D-11111111111----------------------------------
A-11111111111----------------------------------
D-11111111111----------------------------------
 (PM gradually release)

Interlude x3
e-----------------------------------------------
B-----------------------------------------------
G-----------------------------------------------
D--8888888888-111111111-5555555555-11111111111--
A--8888888888-111111111-5555555555-11111111111--
D--8888888888-111111111-5555555555-11111111111--

Interlude 2 x2
e-----------------------------------------------
B-----------------------------------------------
G-----------------------------------------------
D--88x88x88x8-11x11x11x1-55x55x55x5-11x11x11x1--
A--88x88x88x8-11x11x11x1-55x55x55x5-11x11x11x1--
D--88x88x88x8-11x11x11x1-55x55x55x5-11x11x11x1--

Chorus x2

End on 
e-----------------------------------------------
B-----------------------------------------------
G-----------------------------------------------
D-5~----------------------------------------------
A-5~----------------------------------------------
D-5~----------------------------------------------
Comments