Senses Fail - The Ground Folds Chords & Tabs

 

The Ground Folds Chords & Tabs

Senses Fail Chords & Tabs

Version: 1 Type: Tab 1 rating
1 star 2 stars 3 stars 4 stars 5 stars
comments

The Ground Folds Tab

Senses Fail
The Ground Folds
From the Depths of Dreams


intro
e--------------10----------------------10-----------
B--------11-------11----11-------11-------11----11--
G--12-12----12-------12----12-12----12-------12-----
D---------------------------------------------------
A---------------------------------------------------
D---------------------------------------------------
[ Tab from: http://www.guitartabs.cc/tabs/s/senses_fail/the_ground_folds_tab.html ]
e--------------13----------------------13-----------
B--------11-------11----11-------11-------11----11--
G--10-10----10-------10----10-10----10-------10-----
D---------------------------------------------------
A---------------------------------------------------
D---------------------------------------------------


Verse
e------------
B------------
G--7----3----
D--5----1----
A--5----1----
D--5----1----


Pre-chorus
e------------
B------------
G--2----3----
D--0----1----
A--0----1----
D--0----1----


Chorus
e------------------------------------------
B------------------------------------------
G--7---10----3-----------------------------
D--5----8----1-----0-0--0-0-0--1-1--1-1-1--
A--5----8----1-----0-0--0-0-0--1-1--1-1-1--
D--5----8----1-----0-0--0-0-0--1-1--1-1-1--


Bridge
e----------------------
B----------------------
G-10----3----7----3----
D--8----1----5----1----
A--8----1----5----1----
D--8----1----5----1----
Comments