Senses Fail - The Ground Folds Acoustic Chords & Tabs

 

The Ground Folds Acoustic Chords & Tabs

Senses Fail Chords & Tabs

Version: 3 Type: Tab 0 ratings
1 star 2 stars 3 stars 4 stars 5 stars
comments

The Ground Folds Acoustic Tab

by NATE "Dogg" BURGESS

this is the last piano part near the end.

e||----------------------------------------------------|
B||----------------------------------------------------|
G||-----10---10-12-10---10---12---10---10-12-10---10---|
D||---8----8----------8----8----8----8----------8----8-|
A||----------------------------------------------------|
E||----------------------------------------------------|

[ Tab from: http://www.guitartabs.cc/tabs/s/senses_fail/the_ground_folds_acoustic_tab_ver_3.html ]
 strum this with the solo (you figure the strumming out)

e|-----------------------------------------------------|
B|-----------------------------------------------------|
G|--7-----5----3----------------7-----5----3-----------|
D|--5-----3----1----------------5-----3----1-----------|
A|--5-----3----1----------------5-----3----1-----------|
E|--5-----3----1----------------5-----3----1-----------|

good luck, its a prefect tab.

later
Comments