Senses Fail - Rum Is For Drinking Not For Burning Chords & Tabs

 

Rum Is For Drinking Not For Burning Chords & Tabs

Senses Fail Chords & Tabs

Version: 1 Type: Tab 0 ratings
1 star 2 stars 3 stars 4 stars 5 stars
comments

Rum Is For Drinking Not For Burning Tab

----------------------------------------------------------------------
     Rum is for Drinking, Not for Burning - Senses Fail
----------------------------------------------------------------------
Tabbed by: Justin RiRaY   Awwww.... I hate school....
Email: PakMan7JR@hotmail.com

     I am sure this tab is perfect, I sat here for 4 hours perfecting 
the tab to the song. This song is tricky, there are 3 guitars during 
the outro.

Tuning: DADGBe

          *** GUITAR 1 ***

     INTRO

e|-------------------------------------------------------------------|
B|-------------------------------------------------------------------|
G|--------------------------------------------------------   --------|
D|--0-00-0-00--0-00-0-00---8-88-8-88---10-1010-10-1010--- X2 --------|
A|--0-00-0-00--0-00-0-00---8-88-8-88---10-1010-10-1010---   ---------|
D|--0-00-0-00--0-00-0-00---8-88-8-88---10-1010-10-1010---------------|


     VERSE

e|-------------------------------------------------------------------|
B|-------------------------------------------------------------------|
G|-------------------------------------------------------------------|
D|--0-0~---8x8x--3x3x-2x2x---0-0~---8x8x--3x3x-2x2x------------------|
A|--0-0~---8x8x--3x3x-2x2x---0-0~---8x8x--3x3x-2x2x------------------|
D|--0-0~---8x8x--3x3x-2x2x---0-0~---8x8x--3x3x-2x2x------------------|
                                          . .  . .

     PRE-CHORUS

e|-------------------------------------------------------------------|
B|-------------------------------------------------------------------|
G|-------------------------------------------------------------------|
D|-0-0-0-0000-0-00--8-8-8-8888--3-33-22------------------------------|
A|-0-0-0-0000-0-00--8-8-8-8888--3-33-22------------------------------|
D|-0-0-0-0000-0-00--8-8-8-8888--3-33-22------------------------------|

e|-------------------------------------------------------------------|
B|-------------------------------------------------------------------|
G|-------------------------------------------------------------------|
D|-0-0-0-0000-0-00--8-8-8-8888--3x3x-2x2x----------------------------|
A|-0-0-0-0000-0-00--8-8-8-8888--3x3x-2x2x----------------------------|
D|-0-0-0-0000-0-00--8-8-8-8888--3x3x-2x2x----------------------------|
                                . .  . . 

     CHORUS

e|-------------------------------------------------------------------|
B|-------------------------------------------------------------------|
G|-------------------------------------------------------------------|
D|--0-00-00-0-00-0-00---8-88-88-8-88-8-88----------------------------|
A|--0-00-00-0-00-0-00---8-88-88-8-88-8-88-------------     ----------|
E|--0-00-00-0-00-0-00---8-88-88-8-88-8-88------------      ----------|
                                                       X2
e|---------------------------------------------------      ----------|
B|---------------------------------------------------     -----------|
G|-------------------------------------------------------------------|
D|--3-33-33-3-33-3-33--10-1010-10-1010-8-88 10-1010------------------|
A|--3-33-33-3-33-3-33--10-1010-10-1010-8-88 10-1010------------------|
D|--3-33-33-3-33-3-33--10-1010-10-1010-8-88 10-1010------------------|


     *VERSE 2
     *PRE-CHORUS
     *CHORUS


     BRIDGE

e|-------------------------------|-----------------------------------|
B|-------------------------------|-----------------------------------|
G|-------------------------------|-----------------------------------|
D|-- 0~ -------------------------|~ ---------------------------------|
A|-- 0~ -------------------------|~ ---------------------------------|
E|-- 0~ -------------------------|~ ---------------------------------|

e|-------------------------------------------------------------------|
B|-------------------------------------------------------------------|
G|-------------------------------------------------------------------|
D|--0-0-00-00--0-0-00--8-8-88-88--10-10-1010-1010--------------------|
A|--0-0-00-00--0-0-00--8-8-88-88--10-10-1010-1010--------------------|
D|--0-0-00-00--0-0-00--8-8-88-88--10-10-1010-1010--------------------|

e|-------------------------------------------------------------------|
B|-------------------------------------------------------------------|
G|-------------------------------------------------------------------|
D|--0-0-00-00--0-0-00--8-8-88-88--3-3-3-2/3-2------------------------|
A|--0-0-00-00--0-0-00--8-8-88-88--3-3-3-2/3-2------------------------|
D|--0-0-00-00--0-0-00--8-8-88-88--3-3-3-2/3-2------------------------|


     *CHORUS


     OUTRO

e|-------------------------------------------------------------------|
B|-------------------------------------------------------------------|
G|-------------------------------------------------------------------|
D|--0-000-000--0-000-000--8-888-888-8-888-888-----    ---------------|
A|--0-000-000--0-000-000--8-888-888-8-888-888----     ---------------|
D|--0-000-000--0-000-000--8-888-888-8-888-888----     ---------------|
                                                  X2
e|-----------------------------------------------     ---------------|
B|-----------------------------------------------     ---------------|
G|-----------------------------------------------    ----------------|
D|--3-333-333--10-101010-101010-888-101010---------------------------|
A|--3-333-333--10-101010-101010-888-101010---------------------------|
D|--3-333-333--10-101010-101010-888-101010---------------------------|

e|-------------------------------------------------------------------|
B|-------------------------------------------------------------------|
G|-------------------------------------------------------------------|
D|--0~---0~---0~---0x------------------------------------------------|
A|--0~---0~---0~---0x------------------------------------------------|
D|--0~---0~---0~---0x------------------------------------------------|




          *** GUITAR 2 ***

     INTRO
[ Tab from: http://www.guitartabs.cc/tabs/s/senses_fail/rum_is_for_drinking_not_for_burning_tab.html ]
e|-------------------------------------------------------------------|
B|--66-5555-8888-6-5/6-66-55-----6\5------   ------------------------|
G|---------------------------555--------- X2 ------------------------|
D|---------------------------------------   -------------------------|
A|-------------------------------------------------------------------|
D|-------------------------------------------------------------------|

          (No GUITAR 2 in VERSE)

     PRE-CHORUS

e|-------------8-8---------------------8-8---------------------------|
B|--6-6---------------------6-6--------------------------------------|
G|-------------------------------------------------------------------|
D|-------------------------------------------------------------------|
A|-------------------------------------------------------------------|
D|-------------------------------------------------------------------|


     CHORUS

e|-----------8--10--8--3/55------------------------------------------|
B|--5--6--3-------------------   ------------------------------------|
G|--------------------------- X4 ------------------------------------|
D|---------------------------   -------------------------------------|
A|-------------------------------------------------------------------|
D|-------------------------------------------------------------------|


     BRIDGE

e|--5~----------------------------|~---------------------------------|
B|--------------------------------|----------------------------------|
G|--------------------------------|----------------------------------|
D|--------------------------------|----------------------------------|
A|--------------------------------|----------------------------------|
D|--------------------------------|----------------------------------|

e|------------------------5-5-5-55--------88-------------------------|
B|--6-6-6-5/6--6-6-6-5/6------------5-5-5----------------------------|
G|-------------------------------------------------------------------|
D|-------------------------------------------------------------------|
A|-------------------------------------------------------------------|
D|-------------------------------------------------------------------|

e|------------------------5-5-5-55-----------------------------------|
B|--6-6-6-5/6--6-6-6-5/6------------6-6-6-5/6------------------------|
G|-------------------------------------------------------------------|
D|-------------------------------------------------------------------|
A|-------------------------------------------------------------------|
D|-------------------------------------------------------------------|

     
     *CHORUS


     OUTRO     

e|-----------8--10--8--3/55------------------------------------------|
B|--5--6--3-------------------   ------------------------------------|
G|--------------------------- X4 ------------------------------------|
D|---------------------------   -------------------------------------|
A|-------------------------------------------------------------------|
D|-------------------------------------------------------------------|

e|--8-8-1010------1313-1212-1010-8h10--------------------------------|
B|-----------1010------------------------   -------------------------|
G|-------------------------------------- X4 -------------------------|
D|--------------------------------------   --------------------------|
A|-------------------------------------------------------------------|
D|-------------------------------------------------------------------|

e|-------------------------------------------------------------------|
B|--55-66-33-66-55-6-5/6----   ---------------6x---------------------|
G|------------------------- X3 --------------------------------------|
D|-------------------------   ---------------------------------------|
A|-------------------------------------------------------------------|
D|-------------------------------------------------------------------|

e|-------------------------------------------------------------------|
B|--6x6x6x6x6x6x6x6x6x6x6x6x6x6x6x6x6x6x6x6x6x6x6x6x6x6x6x-----------|
G|-------------------------------------------------------------------|
D|-------------------------------------------------------------------|
A|-------------------------------------------------------------------|
D|-------------------------------------------------------------------|
  (gradually decrease volume, first 27 strums)

e|-------------------------------------------------------------------|
B|--6x6x6x6x6x6x6x6x6x6x6x6x6x6x6x6x6x6x6x---------------------------|
G|-------------------------------------------------------------------|
D|-------------------------------------------------------------------|
A|-------------------------------------------------------------------|
D|-------------------------------------------------------------------|
  (gradually increase volume, last 19 strums)



          *** GUITAR 3 ***
          (This guitar is only during the OUTRO)

     OUTRO

e|---------------88-1010-8-6h8---------------------------------------|
B|--88-1010-------------------------    -----------------------------|
G|----------1010------------------- X11 -----7x----------------------|
D|---------------------------------    ------------------------------|
A|-------------------------------------------------------------------|
D|-------------------------------------------------------------------|

e|-------------------------------------------------------------------|
B|-------------------------------------------------------------------|
G|--7x7x7x7x7x7x7x7x7x7x7x7x7x7x7x7x7x7x7x7x7x7x7x7x7x7x7x-----------|
D|-------------------------------------------------------------------|
A|-------------------------------------------------------------------|
D|-------------------------------------------------------------------|
  (gradually decrease volume, first 27 strums)

e|-------------------------------------------------------------------|
B|-------------------------------------------------------------------|
G|--7x7x7x7x7x7x7x7x7x7x7x7x7x7x7x7x7x7x7x---------------------------|
D|-------------------------------------------------------------------|
A|-------------------------------------------------------------------|
D|-------------------------------------------------------------------|
  (gradually increase volume, last 19 strums)


| /  slide up
| \  slide down
| ~  vibrato
| .  palm mute
| x  Mute note
======================================================================
Comments