Senses Fail - One Eight Seven Chords & Tabs

 

One Eight Seven Chords & Tabs

Senses Fail Chords & Tabs

Version: 1 Type: Tab 1 rating
1 star 2 stars 3 stars 4 stars 5 stars
comments

One Eight Seven Tab

Senses Fail
One Eight Seven
From the Depths of Dreams

[ Tab from: http://www.guitartabs.cc/tabs/s/senses_fail/one_eight_seven_tab.html ]
intro
e----------0---------------0---------------0--------
B------3-----3---3-----3-----3---------3-----3---3--
G--2-2---2-----2---4-4---4-----4-2-0-0---0-----0----
D---------------------------------------------------
A---------------------------------------------------
D---------------------------------------------------


Verse
e----------------
B----------------
G--2----4----7---
D--0----4----5---
A--0----2----5---
D--0---------5---


Pre-chorus/Chorus
e----------------------
B----------------------
G--4----7----2----9----
D--4----5----0----7----
A--2----5----0----7----
D-------5----0----7----


Bridge guitar line is same as Chorus but with rests in it.
Comments