Senses Fail - Nj Falls Into The Atlantic Chords & Tabs

 

Nj Falls Into The Atlantic Chords & Tabs

Senses Fail Chords & Tabs

Version: 2 Type: Tab 0 ratings
1 star 2 stars 3 stars 4 stars 5 stars
comments

Nj Falls Into The Atlantic Tab

Author/Artist: Senses Fail
Title: NJ Falls Into The Atlantic(4:07)
Album: Let It Enfold You
Transcribed by: Ronnie Thornley

Regular Drop D Tuning

Just to let you all know, this cd's not even out yet. Get it its awsome when it comes out,
by the way this is my first tab, easy tab tho.

Pretty sure im about 90 or 95% right on this one..

LISTEN TO SONG FOR CORRECT TIMING!(Helpful Hint)

Guitar 1-Intro..."It's, 4 AM.."
e|----------------------------------------------------------------------------|
-|----------------------------------------------------------------------------|
-|----------------------------------------------------------------------------|
-|444444444444444x-0000000000000000x-7777777777777777x-7777777777777777x------|
-|444444444444444x-0000000000000000x-7777777777777777x-7777777777777777x------|
d|444444444444444x-0000000000000000x-7777777777777777x-6666666666666666x------|
pm...............  ................  ................  ................

-|----------------------------------------------------------------------------|
-|----------------------------------------------------------------------------|
-|----------------------------------------------------------------------------|
-|444444444444444x-0000000000000000x-7777777777777777x-7~---------------------|
-|444444444444444x-0000000000000000x-7777777777777777x-7~---------------------|
-|444444444444444x-0000000000000000x-7777777777777777x-6~---------------------|
pm...............  ................  ................

Guitar 1-Chorus (x2)
-|----------------------------------------------------------------------------|
-|----------------------------------------------------------------------------|
-|----------------------------------------------------------------------------|
-|444444444444444--0000000000000000--7777777777777777--7777777777777777-------|
-|444444444444444--0000000000000000--7777777777777777--7777777777777777-------|
-|444444444444444--0000000000000000--7777777777777777--6666666666666666-------|


Guitar 2-Chorus repeat (8x)
-|----------------------------------------------------------------------------|
-|----------------------------------------------------------------------------|
-|---10-10p7---7-----7-8p7---7------------------------------------------------|
-|88---------8-----8-------8--------------------------------------------------|
-|----------------------------------------------------------------------------|
-|----------------------------------------------------------------------------|

*Play this (only) on the 4th time for Guitar 2 instead of above, plays 4x's
-|----------------------------------------------------------------------------|
-|----------------------------------------------------------------------------|
-|8p7---7---------------------------------------------------------------------|
-|----8-----------------------------------------------------------------------|
-|----------------------------------------------------------------------------|
-|----------------------------------------------------------------------------|


Guitar 1-Verse *Let Chords Linger (2x) ..."So speak...your...mind"
-|----------------------------------------------------------------------------|
-|----------------------------------------------------------------------------|
-|----------------------------------------------------------------------------|
-|4~---------------0~---------------4~---------------0~-----------------------|
-|4~---------------0~---------------4~---------------0~-----------------------|
-|4~---------------0~---------------4~---------------0~-----------------------|

Guitar 2-Verse (2x)
-|---------------------------------------------------0~-----------------------|
-|----------------------------------10----9----7-----5~-----------------------|
-|--9-7~-------------9-7~------------9-99---99---9---7~---9-7~----------------|
-|8----------------8------------------------------------8---------------------|
-|----------------------------------------------------------------------------|
-|----------------------------------------------------------------------------|

Guitar 1- Pre Chorus.."Comming straight from of the wires..."
-|----------------------------------------------------------------------------|
-|----------------------------------------------------------------------------|
-|----------------------------------------------------------------------------|
-|44x--4x-4444x--4x-0000x--0x-0000x-0x-4444x-4x-4444x-4x----------------------|
-|44x--4x-4444x--4x-0000x--0x-0000x-0x-4444x-4x-4444x-4x----------------------|
-|44x--4x-4444x--4x-0000x--0x-0000x-0x-4444x-4x-4444x-4x----------------------|
pm..   .  ....   .  ....   .  ....  .  ....  .  ....  .

------------------------------------------------------------------------------|
------------------------------------------------------------------------------|
------------------------------------------------------------------------------|
-0000x-0x-0x-0-000000x--------------------------------------------------------|
-0000x-0x-0x-0-000000x--------------------------------------------------------|
-0000x-0x-0x-0-000000x--------------------------------------------------------|
 ....  .  .    ......
Guitar 2- Pre Chorus (7x)only played 7 times the 8th is below
-|----------------------------------------------------------------------------|
-|----------------------------------------------------------------------------|
-|---7---10p7--7--------------------------------------------------------------|
-|88x-8x-----8x---------------------------------------------------------------|
-|----------------------------------------------------------------------------|
-|----------------------------------------------------------------------------|
pm..  .      .

Do this on the 8th time after u play the above (7x)
-|----------------------------------------------------------------------------|
-|----------------------------------------------------------------------------|
-|----------------------------------------------------------------------------|
-|0-000000x-------------------------------------------------------------------|
-|0-000000x-------------------------------------------------------------------|
-|0-000000x-------------------------------------------------------------------|
pm  ......

Guitar 1- Chorus 2 (2x)
-|----------------------------------------------------------------------------|
-|----------------------------------------------------------------------------|
-|----------------------------------------------------------------------------|
-|4444444444444444-00x-00000000000000-7777777777777777-7777777777777777-------|
-|4444444444444444-00x-00000000000000-7777777777777777-7777777777777777-------|
-|4444444444444444-00x-00000000000000-7777777777777777-6666666666666666-------|
pm                 ..

Guitar 2-Chorus 2 repeat (8x)
-|-----------------------------------------------------------------------------|
-|-----------------------------------------------------------------------------|
-|---10-10p7---7-----7-8p7---7-------------------------------------------------|
-|88--------8----8------8------------------------------------------------------|
-|-----------------------------------------------------------------------------|
-|-----------------------------------------------------------------------------|


*Play this (only) on the 4th time for Guitar 2 instead of above, plays 4x's
-|----------------------------------------------------------------------------|
-|----------------------------------------------------------------------------|
-|8p7---7---------------------------------------------------------------------|
-|----8-----------------------------------------------------------------------|
-|----------------------------------------------------------------------------|
-|----------------------------------------------------------------------------|

Guitar 1-Verse 2 *Let Chords Linger (1x).."this falls on.."
-|----------------------------------------------------------------------------|
-|----------------------------------------------------------------------------|
-|----------------------------------------------------------------------------|
-|4~---------------0~---------------4~---------------0~-----------------------|
-|4~---------------0~---------------4~---------------0~-----------------------|
-|4~---------------0~---------------4~---------------0~-----------------------|
[ Tab from: http://www.guitartabs.cc/tabs/s/senses_fail/nj_falls_into_the_atlantic_tab_ver_2.html ]
Guitar 2-Verse 2 (1x)
-|---------------------------------------------------0~-----------------------|
-|----------------------------------10----9----7-----5~-----------------------|
-|--9-7~-------------9-7~------------9-99---99---9---7~---9-7~----------------|
-|8----------------8------------------------------------8---------------------|
-|----------------------------------------------------------------------------|
-|----------------------------------------------------------------------------|

Guitar 1- Pre Chorus2..."Watching romance from afar.."
-|----------------------------------------------------------------------------|
-|----------------------------------------------------------------------------|
-|----------------------------------------------------------------------------|
-|44x--4x-4444x--4x-0000x--0x-0000x-0x-4444x-4x-4444x-4x----------------------|
-|44x--4x-4444x--4x-0000x--0x-0000x-0x-4444x-4x-4444x-4x----------------------|
-|44x--4x-4444x--4x-0000x--0x-0000x-0x-4444x-4x-4444x-4x----------------------|
pm..   .  ....   .  ....   .  ....  .  ....  .  ....  .

------------------------------------------------------------------------------|
------------------------------------------------------------------------------|
------------------------------------------------------------------------------|
-0000x-0x-0x-0-000000x--------------------------------------------------------|
-0000x-0x-0x-0-000000x--------------------------------------------------------|
-0000x-0x-0x-0-000000x--------------------------------------------------------|
 ....  .  .  . ......

Guitar 2- Pre Chorus2 (7x)only played 7 times the 8th is below
-|----------------------------------------------------------------------------|
-|----------------------------------------------------------------------------|
-|---7---10p7--7--------------------------------------------------------------|
-|88x-8x-----8x---------------------------------------------------------------|
-|----------------------------------------------------------------------------|
-|----------------------------------------------------------------------------|
pm..  .      .

Do this on the 8th time after u play the above (7x)
-|----------------------------------------------------------------------------|
-|----------------------------------------------------------------------------|
-|----------------------------------------------------------------------------|
-|0-000000x-------------------------------------------------------------------|
-|0-000000x-------------------------------------------------------------------|
-|0-000000x-------------------------------------------------------------------|
pm  ......

Guitar 1- Chorus 3 (2x)
-|----------------------------------------------------------------------------|
-|----------------------------------------------------------------------------|
-|----------------------------------------------------------------------------|
-|4444444444444444-00x-00000000000000-7777777777777777-7777777777777777-------|
-|4444444444444444-00x-00000000000000-7777777777777777-7777777777777777-------|
-|4444444444444444-00x-00000000000000-7777777777777777-6666666666666666-------|
pm                 ..

Guitar 2-Chorus 3 repeat (8x)
-|----------------------------------------------------------------------------|
-|----------------------------------------------------------------------------|
-|---10-10p7---7-----7-8p7---7------------------------------------------------|
-|88---------8-----8-------8--------------------------------------------------|
-|----------------------------------------------------------------------------|
-|----------------------------------------------------------------------------|

*Play this (only) on the 4th time for Guitar 2 instead of above, plays 4x's
-|----------------------------------------------------------------------------|
-|----------------------------------------------------------------------------|
-|8p7---7---------------------------------------------------------------------|
-|----8-----------------------------------------------------------------------|
-|----------------------------------------------------------------------------|
-|----------------------------------------------------------------------------|


Guitar 1-Bridge *Let Chords Linger (2x)..."An angel on his two knees.."
-|----------------------------------------------------------------------------|
-|----------------------------------------------------------------------------|
-|----------------------------------------------------------------------------|
-|4~---------------0~---------------4~---------------0~-----------------------|
-|4~---------------0~---------------4~---------------0~-----------------------|
-|4~---------------0~---------------4~---------------0~-----------------------|

Guitar 2-Bridge (4x) Careful with this part, doesnt keep playing, listen for timing..
-|---------------------|------------------------------------------------------|
-|---------------------|------------------------------------------------------|
-|9--11--9--7---6-7-6--|-5-7--5-4---------------------------------------------|
-|x--x---x--x---x-x-x--|-x-x--x-x---------------------------------------------|
-|7/-9\--7\-5\--4/5\4--|-7/9--7-6---------------------------------------------|
-|---------------------|------------------------------------------------------|
                        -Play this directly after u play the first one 4x, play this 1x


Guitar 1-Bridge part 2  (2x).."Its plain to see, the wind beneath the trees..."
-|----------------------------------------------------------------------------|
-|----------------------------------------------------------------------------|
-|----------------------------------------------------------------------------|
-|4~---------------0~---------------7~---------------7~-----------------------|
-|4~---------------0~---------------7~---------------7~-----------------------|
-|4~---------------0~---------------7~---------------6~-----------------------|


Guitar 2-Played through Bridge part 2 and 3 (4x)
-|---------------------|------------------------------------------------------|
-|---------------------|------------------------------------------------------|
-|9--11--9--7---6-7-6--|-777777-555555-4444-----------------------------------|
-|x--x---x--x---x-x-x--|-xxxxxx-xxxxxx-xxxx-----------------------------------|
-|7/-9\--7\-5\--4/5\4--|-999999-777777-6666-----------------------------------|
-|---------------------|------------------------------------------------------|


Guitar 1-Bridge part 3  (2x).."But in this place, im choked with my own air.."
-|----------------------------------------------------------------------------|
-|----------------------------------------------------------------------------|
-|----------------------------------------------------------------------------|
-|444444444444444--0000000000000000--7777777777777777--7777777777777777-------|
-|444444444444444--0000000000000000--7777777777777777--7777777777777777-------|
-|444444444444444--0000000000000000--7777777777777777--6666666666666666-------|

Guitar 1- Chorus 3 (2x)
-|----------------------------------------------------------------------------|
-|----------------------------------------------------------------------------|
-|----------------------------------------------------------------------------|
-|4444444444444444-00x-00000000000000-7777777777777777-7777777777777777---0~--|
-|4444444444444444-00x-00000000000000-7777777777777777-7777777777777777---0~--|
-|4444444444444444-00x-00000000000000-7777777777777777-6666666666666666---0~--|
pm                 ..
Guitar 2-Chorus 3 repeat (8x)
-|----------------------------------------------------------------------------|
-|----------------------------------------------------------------------------|
-|---10-10p7---7-----7-8p7---7------------------------------------------------|
-|88---------8-----8-------8--------------------------------------------------|
-|----------------------------------------------------------------------------|
-|----------------------------------------------------------------------------|

*Play this (only) on the 4th time for Guitar 2 instead of above, plays 4x's
-|----------------------------------------------------------------------------|
-|----------------------------------------------------------------------------|
-|8p7---7---------------------------------------------------------------------|
-|----8-----------------------------------------------------------------------|
-|----------------------------------------------------------------------------|
-|----------------------------------------------------------------------------|
Comments