Senses Fail - Let It Enfold You Chords & Tabs

 

Let It Enfold You Chords & Tabs

Senses Fail Chords & Tabs

Version: 3 Type: Tab 0 ratings
1 star 2 stars 3 stars 4 stars 5 stars
comments

Let It Enfold You Tab

Song: Let It Enfold You
By: Senses Fail
Album: Let It Enfold You
tabbed by: Kyle Woodward

Drop D tuning

~ = let ring
h = hammer on
p = pull of

Intro (Guitar 1):
|--------------------------------------------------------------|
|----7---8--7---5--7---8--7---7--------------------------------|
|--7---7------7------7------7--------6h7p67-6h7p67-6h7p677777--|
|--------------------------------x3----------------------------|
|--------------------------------------------------------------|
|--------------------------------------------------------------|

Intro (Guitar 2):
|---------------------------------------------------------------------------|
|---------------------------------------------------------------------------|
|---------------------------------------------------------------------------|
|--9999999999999999-5555555555555555-0000000000000000-4444444444444444------|
|--9999999999999999-5555555555555555-0000000000000000-4444444444444444------|
|--9999999999999999-5555555555555555-0000000000000000-4444444444444444------|

Verse (Guitar 2):
|---------------------------------------------------------------------------|
|---------------------------------------------------------------------------|
|------------------------------------7777777777777777-----------------------|
|--0000000000000000-4444444444444444-7777777777777777-7777777777777777------|
|--0000000000000000-4444444444444444-5555555555555555-7777777777777777------|
|--0000000000000000-4444444444444444-5555555555555555-7777777777777777------|
      
Verse (Guitar 1)
|---------------------------------------------------------------------------|
|-10------------------------------------------------------------------------|
|----11---------------------------------------------------------------------|  
|-------12------------------------------------------------------------------|   
|---------------------------------------------------------------------------|
|---------------------------------------------------------------------------|

Pre-Chorus (Guitar 2):
|---------------------------------------------------------------------------|
|---------------------------------------------------------------------------|
|---------------------------------------------------------------------------|
|--222222222222-4444-5555555555555555-0000000000000000-777777777777-5-7-----|
|--222222222222-4444-5555555555555555-0000000000000000-777777777777-5-7-----|
|--222222222222-4444-5555555555555555-0000000000000000-777777777777-5-7-----|

Chorus (Guitar 1):
|--------------------------------------------------------------|
|----7---8--7---5--7---8--7---7--------------------------------|
|--7---7------7------7------7--------6h7p67-6h7p67-6h7p677777--|
|--------------------------------x3----------------------------|
|--------------------------------------------------------------|
|--------------------------------------------------------------|

Chorus (Guitar 2):
|---------------------------------------------------------------------------|
|---------------------------------------------------------------------------|
|---------------------------------------------------------------------------|
|--9999999999999999-5555555555555555-0000000000000000-4444444444444444------|
|--9999999999999999-5555555555555555-0000000000000000-4444444444444444------|
|--9999999999999999-5555555555555555-0000000000000000-4444444444444444------|

Verse (Guitar 2):
|---------------------------------------------------------------------------|
|---------------------------------------------------------------------------|
|------------------------------------7777777777777777-----------------------|
|--0000000000000000-4444444444444444-7777777777777777-7777777777777777------|
|--0000000000000000-4444444444444444-5555555555555555-7777777777777777------|
|--0000000000000000-4444444444444444-5555555555555555-7777777777777777------|
      
Verse (Guitar 1)
|---------------------------------------------------------------------------|
|-10------------------------------------------------------------------------|
|----11---------------------------------------------------------------------|  
|-------12------------------------------------------------------------------|   
|---------------------------------------------------------------------------|
|---------------------------------------------------------------------------|
[ Tab from: http://www.guitartabs.cc/tabs/s/senses_fail/let_it_enfold_you_tab_ver_3.html ]
Pre-Chorus (Guitar 2):
|---------------------------------------------------------------------------|
|---------------------------------------------------------------------------|
|---------------------------------------------------------------------------|
|--222222222222-4444-5555555555555555-0000000000000000-777777777777-5-7-----|
|--222222222222-4444-5555555555555555-0000000000000000-777777777777-5-7-----|
|--222222222222-4444-5555555555555555-0000000000000000-777777777777-5-7-----|

Chorus (Guitar 1):
|--------------------------------------------------------------|
|----7---8--7---5--7---8--7---7--------------------------------|
|--7---7------7------7------7--------6h7p67-6h7p67-6h7p677777--|
|--------------------------------x3----------------------------|
|--------------------------------------------------------------|
|--------------------------------------------------------------|

Chorus (Guitar 2):
|---------------------------------------------------------------------------|
|---------------------------------------------------------------------------|
|---------------------------------------------------------------------------|
|--9999999999999999-5555555555555555-0000000000000000-4444444444444444------|
|--9999999999999999-5555555555555555-0000000000000000-4444444444444444------|
|--9999999999999999-5555555555555555-0000000000000000-4444444444444444------|


Bridge 2 (Guitar 2):
|---------------------------------------------------------------------------|
|---------------------------------------------------------------------------|
|---------------------------------------------------------------------------|
|--9999999999999999-5555555555555555-0000000000000000-7777777777777777------|
|--9999999999999999-5555555555555555-0000000000000000-4444444444444444------|
|--9999999999999999-5555555555555555-0000000000000000-4444444444444444------|

|---------------------------------------------------------------------------|
|---------------------------------------------------------------------------|
|--7~~~----7----------------------------------------------------------------|
|--7~~~-55-7~~~~-----------------------------------------------------------|
|--5~~~-55-5~~~~-----------------------------------------------------------|
|--5~~~-55-5~~~~-----------------------------------------------------------|
        

Riff 1 (Guitar 2):
|-----------------------------------------5---------------------------------|
|---7----7----7----7----7----7----7-----7---7-7-----------------------------|
|----7----7----7----7----7----7----7-----7---7------------------------------|
|---------------------------------------------------------------------------|
|--------------------------------0----0---------------------------------------|
|--0----0----4----4----5----5-----------------------------------------------|
let all notes ring

Riff 1 (Guitar 1):
|---------------------------------------------------------------------------|
|--33333333-----------------------------------------------------------------|
|--22222222-----------------------------------------------------------------|
|--00000000-44444444-55555555-77777777--------------------------------------|
|--00000000-44444444-55555555-77777777--------------------------------------|
|--00000000-44444444-55555555-77777777--------------------------------------|


Outro (Guitar 1):
|---------------------------------------------------------------------------|
|---------------------------------------------------------------------------|
|--1212121212121212121212-1111111111-9999-77777777777777--------------------|
|--x-x-x-x-x-x-x-x-x-x-x--x-x-x-x-x--xxxx-xxxxxxxxxxxxxx--------------------|
|--1010101010101010101010-9-9-9-9-9--7777-55555555555555--------------------|
|---------------------------------------------------------------------------|

|------------------------------------|--------------------------------------|
|------------------------------------|--------------------------------------|
|--11111111111111111111111111-121212-|-999--77------------------------------|
|--x-x-x-x-x-x-x-x-x-x-x-x-x--x-x-x--|-xxx--xx------------------------------| x4
|--9-9-9-9-9-9-9-9-9-9-9-9-9--101010-|-777--55------------------------------|
|------------------------------------|--------------------------------------|          

Bridge (Guitar 2):
|---------------------------------------------------------------------------|
|---------------------------------------------------------------------------|
|---------------------------------------------------------------------------|
|--222222222222-4444-5555555555555555-0000000000000000-777777777777---------|
|--222222222222-4444-5555555555555555-0000000000000000-777777777777---------|
|--222222222222-4444-5555555555555555-0000000000000000-777777777777---------|

Guitar 2 ends on:
|----------|
|----------|
|----------|
|--0~~~~---|
|--0~~~~---|
|--0~~~~---|
Comments