Senses Fail - Let It Enfold You Chords & Tabs

 

Let It Enfold You Chords & Tabs

Senses Fail Chords & Tabs

Version: 1 Type: Bass Tab 0 ratings
1 star 2 stars 3 stars 4 stars 5 stars
comments

Let It Enfold You Bass Tab

   
Band: Senses Fail
Song: Let It Enfold You
Album: Let It Enfold You
Label: Drive-Thru/Vagrant
Tabber: TheHappyGoomba

Tuning: Drop D

Intro(1x)
G|--------------------------------------------------------------------------|
D|--------------------------------------------------------------------------|
A|--------------------------------------------------------------------------|
D|-999999999999999--55555555555555555--0000000000000000--4444444444444444---|

Verse(2x) [So the lie now is my weapon...]
G|--------------------------------------------------------------------------|
D|--------------------------------------------------------------------------|
A|--------------------------------------------------------------------------|
D|-00x00xx00xx00xx--44xx44xx44xx44xx--55xx55xx55xx55xx--77xx77xx77xx77xx----|

PreChorus(1x) [Peace or Happiness...So let it enfold you]
G|--------------------------------------------------------------------------|
D|--------------------------------------------------------------------------|
A|--------------------------------------------------------------------------|
D|-222222222222222222--4444--5555555555555555--0000000--7777777--55-77------|

Chorus(1x) [A birth to life is what I'm after...]
G|--------------------------------------------------------------------------|
D|--------------------------------------------------------------------------|
A|--------------------------------------------------------------------------|
D|-999999999999999--55555555555555555--0000000000000000--4444444444444444---|

Verse(2x) [So it's true my words have gone dry...]
G|--------------------------------------------------------------------------|
D|--------------------------------------------------------------------------|
A|--------------------------------------------------------------------------|
D|-00x00xx00xx00xx--44xx44xx44xx44xx--55xx55xx55xx55xx--77xx77xx77xx77xx----|
[ Tab from: http://www.guitartabs.cc/tabs/s/senses_fail/let_it_enfold_you_btab.html ]
PreChorus(1x) [Peace or Happiness...So let it enfold you]
G|--------------------------------------------------------------------------|
D|--------------------------------------------------------------------------|
A|--------------------------------------------------------------------------|
D|222222222222222222--4444--5555555555555555--0000000--7777777--55-77-------|

Chorus(1x) [A birth to life is what I'm after...]
G|--------------------------------------------------------------------------|
D|--------------------------------------------------------------------------|
A|--------------------------------------------------------------------------|
D|-999999999999999--55555555555555555--0000000000000000--4444444444444444---|

PreBridge(1x) [Screams...]
G|--------------------------------------------------------------------------|
D|--------------------------------------------------------------------------|
A|--------------------------------------------------------------------------|
D|-999999999999999--55555555555555555--0000000000000000--4444444444444444---|

G|-------------------------------|
D|-------------------------------|
A|-------------------------------|
D|-5~~-----55-5--0~~-----5h7~----|

Bridge Version 1(2x) [(during second time) I'm just a bad actor...]
G|--------------------------------------|
D|--------------------------------------|
A|--------------5-4---------------------|
D|-0~--0~--4~--------5~--5--7~--7h9~----|

Bridge Version 2(2x) [There was no music for the first time I got kissed...]
G|--------------------------------------|
D|--------------------------------------|
A|--------------------------------------|
D|-0~--0~-4~--4~-5~--5~-7~--9-7-5-4-----|

Post Bridge(2x)[So quietly...]
(start off softly then on the second time end on D|77777777)
G|-------------------------------------------|
D|-------------------------------------------|
A|-------------------------------------------|
D|-00000000-444444444-55555555-77777777------|

Ending(4x)[Please do this now I beg, duct tape my arms and legs...]
G|--------------------------------------------------------------------------|
D|--------------------------------------------------------------------------|
A|--------------------------------------------------------------------------|
D|-999999999999999--55555555555555555--0000000000000000--7777777777777777---|

End[Now..]
G|------|
D|------|
A|------|
D|-0~~~~|
Comments