Senses Fail - Lady In A Blue Dress Chords & Tabs

 

Lady In A Blue Dress Chords & Tabs

Senses Fail Chords & Tabs

Version: 5 Type: Tab 0 ratings
1 star 2 stars 3 stars 4 stars 5 stars
comments

Lady In A Blue Dress Tab

   
GUITAR 1-standard e or drop d

Intro
part 1-delay and echo plex-x2
e|----------------------------------------------------|
b|----------------------------------------------------|
g|-14-14-14-14-14-14-99999/11-11-11-11-11-11-11-99999/|
d|--x--x--x--x--x--x-xxxxx--x--x--x--x--x--x--x-xxxxx-|
a|-12-12-12-12-12-12-77777/-9--9--9--9--9--9--9-77777-|
e|----------------------------------------------------|


part 2-same as part 1-heavily distorted-x2

Verse-Clean-x4
e|----------------------------------------------------|
b|----------------------------------------------------|
g|-14-14-14-14-14-14-99999/11-11-11-11-11-11-11-99999/|
d|--x--x--x--x--x--x-xxxxx--x--x--x--x--x--x--x-xxxxx-|
a|-12-12-12-12-12-12-77777/-9--9--9--9--9--9--9-77777/|
e|----------------------------------------------------|

Chorus-Chorus Effect-x2
e|--------------------------------|\
b|--------10----------10----------| \
g|-----11----11----11---11--------|  \ x3
d|--12----------12--------12------|  /
a|--------------------------------| /
e|--------------------------------|/

e|--------------------------------|
b|--------------------------------|
g|--------------------------------|
d|--12-12-12-12-12-12-12-12-------|
a|--------------------------------|
e|--------------------------------|

Bridge
e|--------------------------------------------------|\
b|--------------------------------------------------| \
g|-11111111111111111111111111/14-7777777771212121299|  \x3
d|--x-x-x-x-x-x-x-x-x-x-x-x-x----xxxxxxxxx-x-x-x-xxx|  /
a|--9-9-9-9-9-9-9-9-9-9-9-9-9/12-5555555551010101077| /
e|--------------------------------------------------|/

e|-------------------------------------------------|
b|-------------------------------------------------|
g|-11111111111111111111111111/14-7777777777777777--|
d|--x-x-x-x-x-x-x-x-x-x-x-x-x----xxxxxxxxxxxxxxxx--|
a|--9-9-9-9-9-9-9-9-9-9-9-9-9/12-5555555555555555--|
e|-------------------------------------------------|

Verse 2-Clean
e|----------------------------------------------------|
b|----------------------------------------------------|
g|-14-14-14-14-14-14-99999/11-11-11-11-11-11-11-99999/|
d|--x--x--x--x--x--x-xxxxx--x--x--x--x--x--x--x-xxxxx-|
a|-12-12-12-12-12-12-77777/-9--9--9--9--9--9--9-77777/|
e|----------------------------------------------------|
[ Tab from: http://www.guitartabs.cc/tabs/s/senses_fail/lady_in_a_blue_dress_tab_ver_5.html ]
e|---------------------------------------------|
b|---------------------------------------------|
g|-14-14-14-14-14-14-99999/11-11-11-11-11-11-11|
d|--x--x--x--x--x--x-xxxxx--x--x--x--x--x--x--x|
a|-12-12-12-12-12-12-77777/-9--9--9--9--9--9--9|
e|---------------------------------------------|

Order:
Intro (part 1 and 2)
Verse "just like a lady in a blue dress..."
Chorus "you say that you want respect..."
Verse "so you say that i am rated X..."
Chorus "you say that you want respect..."
Bridge "don't try to think you'll win..."
Verse 2 "just like a lady in a blue dress..."
Chorus "you say that you want respect..."
(NOTE: on last chorus keep playing d|-12-12-12-12-12-12-12-12-| until end)

-------------------------------------------------------------

GUITAR 2-drop d tuning

Intro-heavily distorted-(comes in with intro 2 for guitar 1)-x2
e|-------------------------------|
b|-------------------------------|
g|-------------------------------|
d|-9-------0------5------0-------|
a|-9-(x6)--0-(x4)-5-(x6)-0-(x4)--|
d|-9-------0------5------0-------|

Verse-Clean-On Beat
e|-------------------------------|
b|-------------------------------|
g|-------------------------------|
d|-9-------7------5-------7------|
a|-9-(x6)--7-(x2)-5-(x6)--7-(x2)-|
e|-9-------7------5-------7------|

Chorus
e|----------------------------|
b|----------------------------|
g|----------------------------|
d|-0------7-----9------5------|
a|-0-(x8)-7-(x8)9-(x8)-5-(x8)-|
e|-0------7-----9------5------|

Bridge
e|-----------------------------------|\
b|-----------------------------------| \
g|-----------------------------------|  \x3
d|-9-9-9-9-9-9--7--5-5-5-5-5-5--7----|  /
a|-9-9-9-9-9-9--7--5-5-5-5-5-5--7----| /
e|-9-9-9-9-9-9--7--5-5-5-5-5-5--7----|/

e|-----------------------------------|
b|-----------------------------------|
g|-----------------------------------|
d|-9-9-9-9-9-9--7--5-5-5-5-5-5-5-5---|
a|-9-9-9-9-9-9--7--5-5-5-5-5-5-5-5---|
e|-9-9-9-9-9-9--7--5-5-5-5-5-5-5-5---|

Verse 2-Clean-On Beat
e|-------------------------------|
b|-------------------------------|
g|-------------------------------|
d|-9-------7------5-------7------|
a|-9-(x6)--7-(x2)-5-(x6)--7-(x2)-|
e|-9-------7------5-------7------|

e|-----------------------|
b|-----------------------|
g|-----------------------|
d|-9-------7------5------|
a|-9-(x6)--7-(x2)-5-(x5)-|
e|-9-------7------5------|

Order:
Intro
Verse x4 "just like a lady in a blue dress..."
Chorus x4 "you say that you want respect..."
Verse x4 "so you say that i am rated X..."
Chorus x4 "you say that you want respect..."
Bridge "don't try to think you'll win..."
Verse 2 x2 "just like a lady in a blue dress..."
Chorus x2 "you say that you want respect..."
End on:
e|----|
b|----|
g|----|
d|-0~-|
a|-0~-|
d|-0~-|

plz rate
if theres any comments plz notify me at atthe_endoftheworld@yahoo.com)
Comments