Senses Fail - Lady In A Blue Dress Chords & Tabs

 

Lady In A Blue Dress Chords & Tabs

Senses Fail Chords & Tabs

Version: 1 Type: Bass Tab 0 ratings
1 star 2 stars 3 stars 4 stars 5 stars
comments

Lady In A Blue Dress Bass Tab

Tuning: Drop D
Label:Vagrant/Drive Thru
Song:Lady In A Blue Dress
Album: Let It Unfold You
Band: Senses Fail
Intro(for the intro they put on a reverse effect so if you have the effect for it here it is)
g-------------------------------------------------------|
d-------------------------------------------------------|
a-------------------------------------------------------|
d-5~-----0~----9~----0~---5~--0~---9~-------------------|


Standard Intro

g-----------------------------------------------------|
d-----------------------------------------------------|
a-----------------------------------------------------|
d-9~----0~-----5~---0~---9~---0~--5~------------------|


Intro 2
[ Tab from: http://www.guitartabs.cc/tabs/s/senses_fail/lady_in_a_blue_dress_btab.html ]
g----------------------------------------------|x2
d----------------------------------------------|
a----------------------------------------------|
d-99999999999--0000-555555555--0000------------|


Verse


g----------------------------------------------|x4
d----------------------------------------------|
a----------------------------------------------|
d-9-9-9-9-9-9-0000-4h5-5-5-5-5-5-12121212------|


Chorus


g--------------------------------------------------|
d--------------------------------------------------|
a--------------------------------------------------|
d-00000000-77777777-99999999-55554h5h2h4h5h2h4-----|


Bridge

g-----------------------------------------|
d--------------------------4h5h4h2--------|
a-----------------------------------------|
d-9999999999/12--5555555------------------|


Outro

g--------------------------------------------------|
d--------------------------------------------------|
a--------------------------------------------------|
d-555555555555555555555555555-7777-0~--------------|
Comments