Senses Fail - Irony Of Dying On Your Birthday Chords & Tabs

 

Irony Of Dying On Your Birthday Chords & Tabs

Senses Fail Chords & Tabs

Version: 2 Type: Tab

Irony Of Dying On Your Birthday Tab

IRONY OF DYING ON YOUR BIRTHDAY

"Guitar 1" = right speaker
"Guitar 2" = left speaker


INTRO:

GUITAR 1:

|------------------------------------------------------------------------|
|------------------------------------------------------------------------|
|--1212-1212-1212-1313---------------------------------------------------|
|---xx---xx---xx---xx----------------------------------------------------|
|--1010-1010-1010-1111---------------------------------------------------|
|------------------------------------------------------------------------|

GUITAR 2:

|------------------------------------------------------------------------|
|------------------------------------------------------------------------|
|--88-88-88-77-----------------------------------------------------------|
|--xx-xx-xx-xx-----------------------------------------------------------|
|--66-66-66-55-----------------------------------------------------------|
|------------------------------------------------------------------------|

BOTH GUITARS:

|------------------------------------------------------------------------|
|------------------------------------------------------------------------|
|--1212-1212-1212-1313---------------------------------------------------|
|---xx---xx---xx---xx----------------------------------------------------|
|--1010-1010-1010-1111---------------------------------------------------|
|------------------------------------------------------------------------|

|------------------------------------------------------------------------|
|------------------------------------------------------------------------|
|--88-88-77-1010-88-7----------------------------------------------------|
|--xx-xx-xx---xx-xx-x----------------------------------------------------|
|--66-66-55---88-66-5----------------------------------------------------|
|------------------------------------------------------------------------|

(Play twice)
*Guitar 2 play two more times
*Guitar 1 play two more times, but strum the guitar more, listen to the song and get the rhythm


VERSE:

|------------------------------------------------------------------------|
|------------------------------------------------------------------------|
|------------------------------------------------------------------------|
|--1010-----------66--------66666666-------------------------------------|
|--1010-(x8)------66--(x6)--66666666-------(play twice)------------------|
|--1010-----------66--------66666666-------------------------------------|

GUITAR 1:

|------------------------------------------------------------------------|
|------------------------------------------------------------------------|
|------------------------------------------------------------------------|
|--10-10---10-12-13-----6-6---5-6-8-6-----10-10---10-12-13---------------|
|--10-10----------------6-6---------------10-10--------------------------|
|--10-10----------------6-6---------------10-10--------------------------|

|------------------------------------------------------------------------|
|------------------------------------------------------------------------|
|------------------------------------------------------------------------|
|--6-6---5-6-------------------------------------------------------------|
|--6-6---5-6-------------------------------------------------------------|
|--6-6---5-6-------------------------------------------------------------|

GUITAR 2:

|------------------------------------------------------------------------|
|------------------------------------------------------------------------|
|------------------------------------------------------------------------|
|--10-10----------------6-6---------------10-10--------------------------|
|--10-10--6-8-10--------6-6--5-6-8-6------10-10--6-8-10------------------|
|--10-10----------------6-6---------------10-10--------------------------|

|------------------------------------------------------------------------|
|------------------------------------------------------------------------|
|------------------------------------------------------------------------|
|--6-6---5-6-------------------------------------------------------------|
|--6-6---5-6-------------------------------------------------------------|
|--6-6---5-6-------------------------------------------------------------|

CHORUS:

GUITAR 1:

|------------------------------------------------------------------------|
|------------------------------------------------------------------------|
|--88888888-1010-8888888-777--12121212121212-777777-555-7----------------|
|--xxxxxxxx--x-x-xxxxxxx-xxx---x-x-x-x-x-x-x-xxxxxx-xxx-x---(two times)--|
|--66666666--8-8-6666666-555--10101010101010-555555-333-5----------------|
|------------------------------------------------------------------------|

GUITAR 2:
[ Tab from: http://www.guitartabs.cc/tabs/s/senses_fail/irony_of_dying_on_your_birthday_tab_ver_2.html ]
|------------------------------------------------------------------------|
|------------------------------------------------------------------------|
|--1212121212121313-888888888777-----------------------------------------|
|--1010101010101010-666666666666-1111111111111-88888888-666-888----------|
|--1010101010101010-666666666666-1111111111111-88888888-666-888-(play 2x)|
|--1010101010101010-666666666666-1111111111111-88888888-666-888----------|


*Play verse again
*Play chrous again, but:

Guitar 1- stop on:

|------------------------------------------------------------------------|
|------------------------------------------------------------------------|
|--7---------------------------------------------------------------------|
|--x---(let fade out)----------------------------------------------------|
|--5---------------------------------------------------------------------|
|------------------------------------------------------------------------|

Guitar 2- stop on:

|------------------------------------------------------------------------|
|------------------------------------------------------------------------|
|------------------------------------------------------------------------|
|--8---------------------------------------------------------------------|
|--8---(let fade out)----------------------------------------------------|
|--8---------------------------------------------------------------------|


BRIDGE:

GUITAR 1:

|------------------------------------------------------------------------|
|------------------------------------------------------------------------|
|------------------------------------------------------------------------|
|--10101010---------6666---------1111---------8888-8888-88---------------|
|--10101010-(slide)-6666-(slide)-1111-(slide)-8888-8888-88--(play 2x)----|
|--10101010---------6666---------1111---------8888-8888-88---------------|

|------------------------------------------------------------------------|
|------------------------------------------------------------------------|
|--1212-1212---88-88-----------------------------------------------------|
|--1010-1010---66-66---11-11---88-88-66-66-66-6--------------------------|
|--1010-1010---66-66---11-11---88-88-66-66-66-6--------------------------|
|--1010-1010---66-66---11-11---88-88-66-66-66-6--------------------------|

|------------------------------------------------------------------------|
|------------------------------------------------------------------------|
|--1212-1212-1212-1313-88-88-77-1010-877---------------------------------|
|---x-x--x-x--x-x--x-x-xx-xx-xx-x-x--xxx-11-11-11-11---------------------|
|--1010-1010-1010-1111-66-66-55-8-8--655-11-11-11-11--88888888-666-------|
|----------------------------------------11-11-11-11--88888888-666-------|


GUITAR 2:

|------------------------------------------------------------------------|
|------------------------------------------------------------------------|
|--8877---8877---87-8877---8877--78-8877--8877---78----------------------|
|------88-----88--------88-----88-------88-----88------------------------|
|------------------------------------------------------------------------|
|------------------------------------------------------------------------|

|------------------------------------------------------------------------|
|------------------------------------------------------------------------|
|--101010101010-666666-777-787-------------------------------------------|
|------------------------------8-----------------------------------------|
|------------------------------------------------------------------------|
|------------------------------------------------------------------------|

*Play last two lines 4 times

*Play chorus


OUTRO:

GUITAR 1:

|------------------------------------------------------------------------|
|------------------------------------------------------------------------|
|--1212121212121212-88-13131313131313-121212--88888888-1010--------------|
|---x-x-x-x-x-x-x-x-xx--x-x-x-x-x-x-x--x-x-x--xxxxxxxx--x-x--------------|
|--1010101010101010-66-11111111111111-101010--66666666--8-8--------------|
|------------------------------------------------------------------------|

|-----------------------------------------|-------------------------------|
|-----------------------------------------|-------------------------------|
|--777777-5555-77-------------------------|-------5-7-8-------------------|
|--xxxxxx-xxxx-xx---(play last 2 lines 2x)|(THEN)-x-x-x--(slide back)-----|
|--555555-3333-55-------------------------|-------3-5-7-------------------|
|-----------------------------------------|-------------------------------|

*For Guitar 2, just play the regular chorus again, but do this at the end:

|------------------------------------------------------------------------|
|------------------------------------------------------------------------|
|------------------------------------------------------------------------|
|--6-8-10----------------------------------------------------------------|
|--6-8-10--(slide back)--------------------------------------------------|
|--6-8-10----------------------------------------------------------------|


OK, i fixed up the last one, and this one is more accurate, more correct!  So enjoy!  
me know what you think!  Thank you!