Senses Fail - Freefall Without A Parachute Chords & Tabs

 

Freefall Without A Parachute Chords & Tabs

Senses Fail Chords & Tabs

Version: 1 Type: Tab 1 rating
1 star 2 stars 3 stars 4 stars 5 stars
comments

Freefall Without A Parachute Tab

Artist: Senses Fail
Song: Freefall Without A Parachute
Album: From The Depths Of Dreams
Submitted By: Frank T
E-mail: sublime40182@yahoo.com

Tuning: Drop D

GTR II/Drop D
GTR I /Drop D



x=dead note
/=slide
p=pull
()=hold note
P.M=Palm Mute




GTR II
1st Intro
1x

E---------------------------------------------------------------------
B------6---5-6--6-----6---5-6--6------6----5-6-6---6--5-6---6--------------------------
G--------5----5---------5----5----------5-----5-----5-----5--------------------------
D--0-0--------------0----------------0-----------0------------------------------
A-----------------------------------------------------------------------
D------------------------------------------------------------------------

GTR I
E---------------------------------
B---------------------------------
G---------------------------------
D-----00xx00----------------------
A-----00xx00----------------------
D-----00xx00----------------------

GTR II
2nd Intro
E------------------------------------------------------------------------------------------
B------------------------------------------------------------------------------------------
G-101010101212121212-10/99999---10101010121212121210/99999---------------------------------
D--x-x-x-x-x-x-x-x-x-x--xxxxx----x-x-x-x-x-x-x-x-x-x-xxxxx-771010----771010----------------
A--8-8-8-81010101010-8/-77777----8-8-8-81010101010-8/77777-778-8-----77-8-8----------------
D----------------------------------------------------------778-8-----77-8-8----------------


GTR I
Intro
E------------------------------------------------------------
B------------------------------------------------------------
G------------------------------------------------------------
D-0000000000000000--7788-------7788--------------------------
A-0000000000000000--7788-------7788--------------------------
D-0000000000000000--7788-------7788--------------------------


Verse
GTR I/GTR II
E-----------------------------------------------------------------------
B-----------------------------------------------------------------------
G-----------------------------------------------------------------------
D-0-00000-0000-00000-0000-88888-0-7-0-8-88888-0-7-0-0-------------------
A-0-00000-0000-00000-0000-88888-0-7-0-8-88888-0-7-0-0-------------------
D-0-00000-0000-00000-0000-88888-0-7-0-8-88888-0-7-0-0-------------------



Pre Chorus
GTR I
E----------------------------------------------------------------------
B----------------------------------------------------------------------
G----------------------------------------------------------------------
D-000000000000000-0-8xxx8-0h8xx8---------------------------------------
A-000000000000000-0-8xxx8-0h8xx8---------------------------------------
D-000000000000000-0-8xxx8-0h8xx8---------------------------------------


[ Tab from: http://www.guitartabs.cc/tabs/s/senses_fail/freefall_without_a_parachute_tab.html ]
Pre Chorus
GTR II
E-----------------------------------------------
B-----------------------------------------------
G---10--10-10-10--12-12-12p10-9-----------------
D-----------------------------------------------
A-----------------------------------------------
D-----------------------------------------------


Chorus
GTR I/GTR II
E---------------------------------------------------------------------
B----------------------------------------------------------------------
G----------------------------------------------------------------------------
D--33333333333-000000000000-88888888888888-33333333333333---------------------------------------------------------------------
A--33333333333-000000000000-88888888888888-33333333333333------------------------------------------------------------------
D--33333333333-000000000000-88888888888888-33333333333333-------------------------------------------------------------------


Verse 2x
GTR?GTR II

Pre Chorus
GTR I/GTR II

Chorus
GTR I/GTR II





Interlude
GTR II
E---------------------------------I-------------------I--------------------------
B---------------------------------I-------------------I--11-10---11-10-----------
G---10------10-9----10--9----9-10-I--10-9----10-9---9-I--------12------12--------
D----------------10-------10------I-------10------10--I--------------------------
A---------------------------------I-------------------I--------------------------
D---------------------------------I-------------------I--------------------------


GTR I
Breakdown
E-----------------------------------------------------
B-----------------------------------------------------
G-----------------------------------------------------
D-33333333333333--------------------------------------
A-33333333333333--------------------------------------
D-33333333333333--------------------------------------


Chorus
GTR I/GTR II





GTR I
P.M
E---------------------------------------------------------------------
B----------------------------------------------------------------------
G-----------------------555555555-----------------------------------------------------
D--777777777--333333333------------3333333333333-(3)---------------------------------------------------------
A------------------------------------------------(3)-----------------------
D------------------------------------------------(3)------------------------




Ending
Piano Part

E---18---17---15-------------18-17-15---------------20---18--17---15----------------------
B-----------------18-17--18-----------18--17--18-----------------------18--17---18--------
G-----------------------------------------------------------------------------------------
D-----------------------------------------------------------------------------------------
A-----------------------------------------------------------------------------------------
D-----------------------------------------------------------------------------------------




End



Comments